PrimaNota.ru - самый крупный в мире бесплатный архив песенных текстов, аккордов, табулатур и нот


Endeverafter - All Night - текст песни, таба, видео

Регистрация Запомнить меня
Войти через:  Facebook Google Twitter Vk Yandex Mail.ru

Endeverafter - All Night - текст песни, таба, видео

Печатать
Просмотров: 138
I tabbed this out and its 99.9% right (everything but the solo but someone can figure that out)
I am a huge Endeverafter Fan and I love this song...
[This was all tabbed by me don't take credit please]



Intro / Verse / solo rhythm [Distortion]
E|-------------------------------|
B|-------------------------------|
G|-------------------------------|
D|-------2--------2-----2--6-5-4-|
A|-----2---2------0-----0--4-3-2-|
E|-2/4-----0---4~----4~----------|

Pre-Chorus / bridge
E|----------------------------------------|
B|----------------------------------------|
G|----------------------------------------|
D|-9-9-9-9--9-9-9-9--9-9-9-9--9-9-9-9-9-9-|
A|-7-7-6-7--7-7-6-7--7-7-6-7--6-6-6-7-6-7-|
E|----------------------------------------|

End of pre-chorus / bridge
E|---|
B|---|
G|---|
D|-8-|
A|-6-|
E|---|

Chorus
E|----------------------------------|
B|----------------------------------|
G|-222-------------66-------444-----|
D|-222-----222-----66-------444-----|
A|-000-----222-----44-4-6-7-222-----|
E|-----4-2-000-2-4--------------4-2-|

Chorus End
E|-----------------------------------|
B|-----------------------------------|
G|-222-------------66-------444------|
D|-222-----222-----66-------444--/2~-|
A|-000-----222-----44-4-6-7-222------|
E|-----4-2-000-2-4-------------------|

E|-------|
B|-------|
G|-2-2-2-|
D|-2-2-2-|
A|-0-0-0-|
E|-------|

Chorus to solo
E|-------|
B|-------|
G|-2-----|
D|-2-----|
A|-0-----|
E|---0-4-|
Добавлено: 20.07.2012
Другие материалы по этой песне:
  • Аккорды и текст

Страница создана 20.07.2012
http://primanota.ru/endeverafter/all-night-chords.htm
Привет, Гость.
Предлагаем пройти революционный курс по гитаре.
Подарок от PrimaNota.Ru, забирай!