PrimaNota.ru - самый крупный в мире бесплатный архив песенных текстов, аккордов, табулатур и нот


Endank Soekamti - Merah Sekali Part 2 - таба, видео

Регистрация Запомнить меня
Войти через:  Facebook Google Twitter Vk Yandex Mail.ru

Endank Soekamti - Merah Sekali Part 2 - таба, видео

Печатать
Просмотров: 94
Judul      : Merah sekali part 2
Artis      : Endank Soekamti
Tab oleh   : yoos
Email      : yoosyoes@yahoo.com
Blog       : yoosyoes.blogspot.com

Fig1
e|---------------------------------------|
B|---------------------------------------|
G|-6--4h6-2—6--4h6-2--7--6h7-4--7--6h7-4-|
D|---------------------------------------|
A|---------------------------------------|
E|---------------------------------------|

Fig2
e|-------------------------------------------------------------|
B|-------------------------------------------------------------|
G|-xx-xx-6/9-9-11\-6--xx-xx-6/9-9-11\-6--7-6-7\-4--7-6-7\-4--2-|
D|-------------------------------------------------------------|
A|-xx-xx-4/7-7--9\-4--xx-xx-4/7-7--9\-4--5-4-5\-2--5-4-5\-2--0-|
E|-------------------------------------------------------------|

Fig3
e|------9------9-----6-------6------9------9-----6-------6-|
B|---10-----10-----7---7---7-----10-----10-----7---7---7---|
G|-9------9------6-------6-----9------9------6-------6-----|
D|---------------------------------------------------------|
A|---------------------------------------------------------|
E|---------------------------------------------------------|

e|-----5-----5-----2-------2-----5-----5-----2-------2-|
B|---7-----7-----4---4---4-----7-----7-----4---4---4---|
G|-7-----7-----4-------4-----7-----7-----4-------4-----|
D|-----------------------------------------------------|
A|-----------------------------------------------------|
E|-----------------------------------------------------|

Fig4
e|---------------------------------|
B|---------------------------------|
G|-6-6-6-6-------------------------|
D|---------7-7-7-7-4-4-4-4-9-9-9-9-|
A|-4-4-4-4-------------------------|
E|---------5-5-5-5-2-2-2-2-7-7-7-7-|

Fig5
e|-------------------------------|
B|-------------------------------|
G|-7-7-7-6-7-6-4--7-7-7-6-7-6-4\-|
D|-------------------------------|
A|-------------------------------|
E|-------------------------------|

Fig6
e|-2-2-2-2-2-2-2-2-2-2-2-2-2-2-2-2-2-2-2-2-2-2-2-|
B|-----------------------------------------------|
G|-----------------------------------------------|
D|-----------------------------------------------|
A|-----------------------------------------------|
E|-----------------------------------------------|

Fig7
e|-----------------|
B|-----------------|
G|-----------------|
D|-xx-xx-7\-4\--4\-|
A|-xx-xx-7\-4\--4\-|
E|-xx-xx-5\-2\--2\-|


Fig1

Fig2
Uooo…

    A5        F#5        A5         F#5
Bila suatu saat nanti kusudah punya kekasih
    D5         B5   D5              B5
kan kucium pipinya kucubit sampai merah

Fig2
Uooo…

(Fig3)
A5              F#5        A5              F#5
Romantika bercinta sungguh aneh tetapi nyata
    D5         B5         D5         B5
Tak semudah anganku tak semerah hatiku

A5   B5   D5   E5
Ber… cin… ta…

(Fig4)
A5         D5              B5         E5
Kucium lagi merah sekali kucubit lagi merah sekali
A5         D5              B5         E5              A5
Bercumbu lagi merah sekali bercinta lagi sekuat tenaga

               (Fig5)
A5         F#5        A5         F#5
Bila waktu tiba ada yang suka padaku
               (Fig6)
    D5         B5         D5         B5
Kan kumanjakan dirimu kukabulkan permintaanmu
    (Fig7)
    A5        F#5        A5         F#5
Bila suatu saat nanti kusudah punya kekasih
    D5         B5   D5              B5
kan kucium pipinya kucubit sampai merah

A5   B5   D5   E5 A5
Ber… cin… ta…


That's all
Jujur sih klo gw lebih seneng denger Merah Sekali Part1 hehe…
Tapi temen gw lebih banyak yg suka Part2
Добавлено: 18.07.2012
Другие материалы по этой песне:
  • Аккорды и текст

Страница создана 18.07.2012
http://primanota.ru/endank-soekamti/merah-sekali-part-2-chords.htm
Привет, Гость.
Предлагаем пройти революционный курс по гитаре.
Подарок от PrimaNota.Ru, забирай!