PrimaNota.ru - самый крупный в мире бесплатный архив песенных текстов, аккордов, табулатур и нот


Endank Soekamti - Maaf - таба, видео

Регистрация Запомнить меня
Войти через:  Facebook Google Twitter Vk Yandex Mail.ru

Endank Soekamti - Maaf - таба, видео

Печатать
Просмотров: 99
Song        : M.A.A.F
Album       : Soekamti.Com
Artist      : Endank Soekamti

Tabbed by   : yoos
Blog        : yoosyoes.blogspot.com


@intro....
e|-------------------------------------------------------------------|
B|-------------------------------------------------------------------|
G|--4-4-4-4-4-4-4-4---5-5-5-5-5-5---7-7-7-7-7-7-7-7---5-5-5-5-5/7-5--|
D|-------------------------------------------------------------------|
A|--2-2-2-2-2-2-2-2---3-3-3-3-3-3---5-5-5-5-5-5-5-5---3-3-3-3-3/5-3--|
E|-------------------------------------------------------------------|

e|-----------------------------------------------------|
B|----------------------------------5--3---------------|
G|--4-4-4-4-4-4-4-4---5-5-5-5-5-5---------5--4------4--|
D|----------------------------------------------5h7----|
A|--2-2-2-2-2-2-2-2---3-3-3-3-3-3----------------------|
E|-----------------------------------------------------|


@maafkanlah aku....
e|---------------------------------------------------------------------------------|
B|---------------------------------------------------------------------------------|
G|--4-4-4-4-4-4-4-4---9-9-9-9-9-9-9-9---12-12-12-12-12-12-12-12---7-7-7-7-5-5-5-5--|
D|---------------------------------------------------------------------------------|
A|--2-2-2-2-2-2-2-2---7-7-7-7-7-7-7-7---10-10-10-10-10-10-10-10---5-5-5-5-3-3-3-3--|
E|---------------------------------------------------------------------------------|

e|-----------------------------------------------------------------------------------------|
B|-----------------------------------------------------------------------------------------|
G|--4-4-4-4-4-4-4-4---9-9-9-9-9-9-9-9---12-12-12-12-12-12-12-12---11-11-11-11-11-11-11-11--|
D|-----------------------------------------------------------------------------------------|
A|--2-2-2-2-2-2-2-2---7-7-7-7-7-7-7-7---10-10-10-10-10-10-10-10----9--9--9--9--9--9--9--9--|
E|-----------------------------------------------------------------------------------------|

@tak perlu saling...
e|-----------------------------------------------------|
B|-----------------------------------------------------|
G|--12-12-12-12---12-12-12-12---12-12-12-12---7-7-7-7--|
D|-----------------------------------------------------|
A|--10-10-10-10---10-10-10-10---10-10-10-10---5-5-5-5--|
E|-----------------------------------------------------|

@solo...
e|------------------------------------------|
B|------------------------------------------|
G|------------------------------------------|
D|------------------------------------------|
A|---------------------2-3--2---5--5--5--5--|
E|--0--2-3-2--3-5-3--5--------5-------------|

@solo...
e|--------------------------------|
B|--3---1--5--3h5p3p1-3---1--3/8--|
G|--------------------------------|
D|--------------------------------|
A|--------------------------------|
E|--------------------------------|

@reff terakhir
e|-----------------------------------------------------------------------------------------|
B|-----------------------------------------------------------------------------------------|
G|--9-9-9-9-9-9-9-9---11-11-11-11-11-11-11-11---14-14-14-14-14-14-14-14---9-9-9-9-9-9-9-9--|
D|-----------------------------------------------------------------------------------------|
A|--7-7-7-7-7-7-7-7----9--9--9--9--9--9--9--9---12-12-12-12-12-12-12-12---7-7-7-7-7-7-7-7--|
E|-----------------------------------------------------------------------------------------|

e|-----------------------------------------------------------------------------------------|
B|-----------------------------------------------------------------------------------------|
G|--6-6-6-6-6-6-6-6---4-4-4-4-4-4-4-4---14-14-14-14-14-14-14-14---13-13-13-13-13-13-13-13--|
D|-----------------------------------------------------------------------------------------|
A|--4-4-4-4-4-4-4-4---2-2-2-2-2-2-2-2---12-12-12-12-12-12-12-12---11-11-11-11-11-11-11-11--|
E|-----------------------------------------------------------------------------------------|


CHORD

E5 F5 G5 F5 E5 F5 G5
E5 F5 G5 F5 E5 F5 G5

E5          F5
mau dibilang apalagi
E5          F5
aku memang seperti ini
E5          F5
seharusnya kau pun mengerti
G5          D5
seharusnya kau memaklumi

E5          F5
bukan maksudku menyakiti
E5          F5
bukan juga mengkhianati
E5          F5
aku hanya bukan seperti
G5          D5
harapanmu sekarang ini

E5       A5       C5       G5
maafkanlah aku dan semua kesalahanku
E5       A5       C5       D5
baik tak sengaja ataupun memang sengaja
E5       A5       C5       G5
sudahlah sudahlah biarlah aku yang mengalah
E5       A5       C5       D5
tetaplah tersenyum kembali lagi padaku

E5          F5
tak perlu saling menyalahkan
E5          F5
tak perlu saling menjatuhkan
E5          F5
ini bukanlah pertandingan
G5          D5
dan kemenangan diperebutkan

E5          F5
tak perlu menunggu lebaran
E5          F5
untuk kita berjabat tangan
E5          F5
tak perlu malu memaafkan
G5          D5
hilangkanlah permusuhan

E5       A5       C5       G5
maafkanlah aku dan semua kesalahanku
E5       A5       C5       D5
baik tak sengaja ataupun memang sengaja
E5       A5       C5       G5
sudahlah sudahlah biarlah aku yang mengalah
E5       A5       C5       D5
tetaplah tersenyum kembali lagi padaku

E5 D5 E5 D5

Oooooooooooooo
E5 D#5 D5 C#5 C5 B5 A5 D5

G5 

E5 F5 E5 F5 E5 F5 G5 D5
(yg boso jowo, sorry yoos ora ngerti ngomongnya opo)

E5          F5
jangan lagi musuhi aku
E5          F5
apalagi dendam padaku
E5          F5
biar menjadi masa lalu
G5          D5
biar menjadi cerita lucu

E5       A5       C5       G5
maafkanlah aku dan semua kesalahanku
E5       A5       C5       D5
baik tak sengaja ataupun memang sengaja
E5       A5       C5       G5
sudahlah sudahlah biar aku yang mengalah
E5       A5       C5       D5
tetaplah tersenyum kembali lagi padaku

E5 F5 D5

F#5      B5       D5       A5
maafkanlah aku dan semua kesalahanku
F#5      B5       D5       E5
baik tak sengaja ataupun memang sengaja
F#5      B5       D5       A5
sudahlah sudahlah biar aku yang mengalah
F#5      B5       D5       E5
tetaplah tersenyum kembali lagi padaku
F#5
bercumbu.....
Добавлено: 27.04.2012
Другие материалы по этой песне:
  • Аккорды и текст

Страница создана 27.04.2012
http://primanota.ru/endank-soekamti/maaf-chords.htm
Привет, Гость.
Предлагаем пройти революционный курс по гитаре.
Подарок от PrimaNota.Ru, забирай!