PrimaNota.ru - самый крупный в мире бесплатный архив песенных текстов, аккордов, табулатур и нот


Endank Soekamti - Kemari - таба, видео

Регистрация Запомнить меня
Войти через:  Facebook Google Twitter Vk Yandex Mail.ru

Endank Soekamti - Kemari - таба, видео

Печатать
Просмотров: 84
Judul          : Kemari
Band/Singer    : Endank Soekamti
Album          : Kelas 1
Tab oleh       : I-one Zakuza
Email          : ione_zakuza@rocketmail.com
Blog           : zakuza-secret.blogspot.com

Fig 1
e|----------------------|
B|----------------------|
G|--5-5-------7-7-------|
D|-------7-7-------5-5--|
A|--3-3-------5-5-------|
E|-------5-5-------3-3--|

Tab1
e|-----|
B|-----|
G|--5--|
D|-----|
A|--3--|
E|-----|

Tab2
e|-----|
B|-----|
G|--10-|
D|-----|
A|--8--|
E|-----|

Fig 2
e|-------------|
B|-------------|
G|--9-9-7-7-9--|
D|-------------|
A|--7-7-5-5-7--|
E|-------------|

Fig 3
e|-----------------|
B|-----------------|
G|-----5---5---5---|
D|-----------------|
A|--3-3--3-3--3-3--|
E|-----------------|
 
Fig 4
e|---------------------------------------------------------------|
B|---------------------------------------------------------------|
G|--14-14-14-14-12--10-10-10-10-12--14-14-14-14-12--10-10-10-10--|
D|---------------------------------------------------------------|
A|--12-12-12-12-10--8--8--8--8--10--12-12-12-12-10--8--8--8--8---|
E|---------------------------------------------------------------|
 

[Fig 1]
C5 A5 D5 G5 

C5        F5     G5           C5
Kemarilah kemari banyak teman disini
C5              F5       G5        C5
Cantik ganteng dan seksi baik hatinya
[Tab1]
C5       F5           G5         C5
Bila kau sedang sedih atau masih sendiri
[Tab2]                          [Tab1]
C5         F5        G5          C5
Bermain bersamaku hilangkan lelahmu

[Fig 1]
C5 A5 D5 G5 

C5              F5      G5         C5
Angkat tangan dan kaki putar ke kanan kiri
C5           F5         G5      C5
Goyangkanlah pinggulmu ikuti irama
[Tab1]
C5                 F5       G5            C5
Awas jangan sampai terjatuh jangan sampai terhempas
[Tab2]                          [Tab1]
C5          F5       G5          C5
Bermain bersamaku hilangkan lelahmu

G5                    C5        [Fig 2]
Nanti gelisahmu jadi senyuman
G5                      C5      [Fig 2]
Hilangnya pacarmu tak jadi beban
G5                      C5  F5   G5
Marah letih lesu jadi bergairah

[Fig 1]
C5 A5 D5 G5 

C5        F5     G5           C5
Kemarilah kemari banyak teman disini
C5              F5       G5        C5
Cantik ganteng dan seksi baik hatinya
[Fig 3]
C5       F5           G5         C5
Bila kau sedang sedih atau masih sendiri
C5         F5        G5          C5
Bermain bersamaku hilangkan lelahmu

G5                    C5        [Fig 2]
Nanti gelisahmu jadi senyuman
G5                      C5      [Fig 2]
Hilangnya pacarmu tak jadi beban
G5                      C5  F5   G5
Marah letih lesu jadi bergairah

[Fig 4]
A5 G5 F5 G5 A5 G5 F5

G5                    C5
Nanti gelisahmu jadi senyuman
G5                      C5
Hilangnya pacarmu tak jadi beban
G5                      C5  F5   G5
Marah letih lesu jadi bergairah

[Fig 1]
C5 A5 D5 G5 
Добавлено: 16.09.2013
Другие материалы по этой песне:
  • Аккорды и текст

Страница создана 16.09.2013
http://primanota.ru/endank-soekamti/kemari-chords.htm
Привет, Гость.
Предлагаем пройти революционный курс по гитаре.
Подарок от PrimaNota.Ru, забирай!