PrimaNota.ru - самый крупный в мире бесплатный архив песенных текстов, аккордов, табулатур и нот


Endank Soekamti - Go Skate Go Green - таба, видео

Регистрация Запомнить меня
Войти через:  Facebook Google Twitter Vk Yandex Mail.ru

Endank Soekamti - Go Skate Go Green - таба, видео

Печатать
Просмотров: 96
Song        : Go Skate Go Green
Album       : Soekamti.Com
Artist      : Endank Soekamti

Tabbed by   : yoos
Email       : yoosyoes@yahoo.com
Blog        : yoosyoes.blogspot.com

Intro...
e|----------------------------|
B|----------------------------|
G|----5-------------5----7-5--|
D|--7----7-5----5-7----7------|
A|-----------7----------------|
E|----------------------------|

Intro juga....
e|----------------------------------------------------|
B|----------------------------------------------------|
G|----------------------------------------------------|
D|----------------------------------------------------|
A|---------3-5-7-------------------3-3---------5-3-5--|
E|--5--5-5--------0--0-0-0--1--1-1------3-3--3--------|

Sebelum reff...
e|---------------------------------------------|
B|---------------------------------------------|
G|--9-9-7-9---7-9-7------7-7----7------7-------|
D|------------------10-------10-----10---10-9--|
A|---------------------------------------------|
E|---------------------------------------------|

Solo...
e|-------------------------------------------------------|
B|-------------------------------------------------------|
G|-------------------------------------------------------|
D|-------------------------------------------------------|
A|----------------------3-----------------------------2--|
E|--5-3-5--5-3-5--5-3-5---5-3-5--5-3-5--5-3-5--5-3-5--0--|

e|----5-7-7/8---7h8p7----7---5h7p5---5---3h5p3---3--|
B|--5-----------------10-----------8-----------5----|
G|--------------------------------------------------|
D|--------------------------------------------------|
A|--------------------------------------------------|
E|--------------------------------------------------|

e|------5-5-7-7-8-8-7-7-5-5-7-7--|
B|--5-5--------------------------|
G|-------------------------------|
D|-------------------------------|
A|-------------------------------|
E|-------------------------------|

e|--7h8p7h8p7h8p7h8p7h8p7h8p7h8p7h8p7-/11h12p11h12p11h12p11h12-12b14--|
B|--------------------------------------------------------------------|
G|--------------------------------------------------------------------|
D|--------------------------------------------------------------------|
A|--------------------------------------------------------------------|
E|--------------------------------------------------------------------|


Intro
A5 E5 D5 C5 6x
A5 E5 F5 G5 4x

A5        G5        F5       G5
dunia semakin panas cuaca tak tentu
A5        G5        F5       G5
bumi yang menua banyak bencana

A5     G5     F5     G5
o oo ooo oo ooo oo ooo
A5     G5     F5     G5
o oo ooo oo ooo oo ooo

A5 G5 F5 G5 2x

C5                             F5    G5
andaikan aku bisa kuhentikan perputaran dunia
C5                           F5 G5 D5 F5
agar aku dan kamu perbaiki semuanya

A5 E5 D5 C5 4x

A5        G5        F5       G5
limbah dan polusi ozon berlubang
A5        G5        F5       G5
kutub yang mencair laut meninggi

A5     G5     F5     G5
o oo ooo oo ooo oo ooo
A5     G5     F5     G5
o oo ooo oo ooo oo ooo

A5 G5 F5 G5 2x

C5                             F5    G5
andaikan aku bisa kuhentikan perputaran dunia
C5                           F5 G5
agar aku dan kamu perbaiki semua
D5                                 F5
biar anak cucu kita bisa menikmati indahnya hidup dalam dunia

A5 G5 A5 E5 2x
Am G F G 4x
E5

A5       G5       F5         G5 E5
bergerak serentak selamatkan bumi
A5     G5       F5      E5
demi masa depan kita sendiri

C5                             F5    G5
andai aku bisa kuhentikan perputaran dunia
C5                           F5 G5
agar aku dan kamu perbaiki semua
A5                                 F5  G5
coba menehan diri meredam nafsu eksploitasi
A5                               F5 G5 F5
hijaukan tekhnologi selamatkan bumi kita

A5 E5 F5 G5 4x
A5 E5
Добавлено: 27.06.2012
Другие материалы по этой песне:
  • Аккорды и текст

Страница создана 27.06.2012
http://primanota.ru/endank-soekamti/go-skate-go-green-chords.htm
Привет, Гость.
Предлагаем пройти революционный курс по гитаре.
Подарок от PrimaNota.Ru, забирай!