PrimaNota.ru - самый крупный в мире бесплатный архив песенных текстов, аккордов, табулатур и нот


End Of Fashion - O Yeah - аккорды и текст, видео

Регистрация Запомнить меня
Войти через:  Facebook Google Twitter Vk Yandex Mail.ru

End Of Fashion - O Yeah - аккорды и текст, видео

Печатать
Просмотров: 116
Авторы: Justin Burford

O Yeah
End Of Fashion



Date: Wed, 4 Jan 2006 20:06:35 +1100
From: zac zacharia 
Subject: e/end_of_fashion/o_yeah.crd


End of Fashion - O Yeah
 

My name is Peter Zacharia. This is how my band plays it. Im pretty
sure this is right


Intro

 

E ---------------------------------------------

B ---------------------------------------------

G ------------6-6-6-6-6---7-7-7-7-7------------ x1

D 2-2-2-2-2---6-6-6-6-6---7-7-7-7-7---9-9-9-9-9

A 2-2-2-2-2---4-4-4-4-4---5-5-5-5-5---9-9-9-9-9

E 0-0-0-0-0---------------------------7-7-7-7-7

 

verse/chorus

 

E ---------------------------------------------

B ---------------------------------------------

G ------------6-6-6-6-6------------------------

D 2-2-2-2-2---6-6-6-6-6---6-6-6-6-6---4-4-4-4-4

A 2-2-2-2-2---4-4-4-4-4---6-6-6-6-6---4-4-4-4-4

E 0-0-0-0-0---------------4-4-4-4-4---2-2-2-2-2

 

Chords used in bridge

 

  Am           Em          B5

 

E 0-------   e --------   e --------

B 1-------   b 0-------   b --------

G 2-------   g 0-------   g 4-------

D 2-------   d 2-------   d 4-------

A 0-------   a 2-------   a 2-------

E --------   e 0-------   e --------

 

Bridge

 

Come on
Am          Em

sweet candy,
                  Am          Em

Just give me some sweet candy

                 Am        Em

You make me feel oooh baby

                          B5
You think you're all that

 

 

That~Rs it

 

the order is intro

verse

chorus

verse

chorus

bridge

chorus

 

 


Добавлено: 16.10.2013
Другие материалы по этой песне:
  • Аккорды и текст

Страница создана 28.02.2012
http://primanota.ru/end-of-fashion/o-yeah-chords.htm
Привет, Гость.
Предлагаем пройти революционный курс по гитаре.
Подарок от PrimaNota.Ru, забирай!