PrimaNota.ru - самый крупный в мире бесплатный архив песенных текстов, аккордов, табулатур и нот


Enanitos Verdes - Tequila En Vivo - таба, бас-таба, видео

Регистрация Запомнить меня
Войти через:  Facebook Google Twitter Vk Yandex Mail.ru

Enanitos Verdes - Tequila En Vivo - таба, бас-таба, видео

Печатать
Просмотров: 163
(Intro)

E---------------------------------|
B-----1-----1------3---3---1------|
G---2-----0------0------------0---|
D-2------------------0---0--------|
A-------3-------------------------|
E-------------3-------------------|


Solo 1 (1:29):
 sb= slow bend                                                    w/bar

-----------8-10-11\10sb--10br=p8----8---------8---------------------------|
-8sb~~-/10-----------------------10---10br~-10-10-------------------------|
--------------------------------------------------9-8-7-5-7/9-7~~/\/\/----|
--------------------------------------------------------------------------|
--------------------------------------------------------------------------|
--------------------------------------------------------------------------|

Outro (3:27): w/wah

E-|------------------------|------------------------------|
B-|o----------------------o|--8b10~--b10r8p5--------------|
G-|-----5---5~--------7-5~-|-----------------7-5-7/\/\/---|
D-|--7~---7----7-5~-7------|------------------------------|
A-|o----------------------o|------------------------------|
E-|------------------------|------------------------------|

E--------------------------------------|
B--------------------------------------|
G-14b16-14b16-14b16--14b16r14-12-14~---|
D--------------------------------------|
A--------------------------------------|
E--------------------------------------|

E-----------------------------------------------------------------------|
B-----------------------------------------------------------17-20b22~---|
G-------------------------------------17~---------17-19~----------------|
D-17h19-19-19-17h19-19-19-17h19-19-19----17h19-19--------19-------------|
A-----------------------------------------------------------------------|
E-----------------------------------------------------------------------|


E--------------------------------------------------------------------|
B-b22r20p17----17-------------------------------------------17-17----|
G-----------19----19b21r19-17----19----17-------------17-------------|
D-----------------------------19----19------19p17-19-----19----------|
A--------------------------------------------------------------------|
E--------------------------------------------------------------------|

E-------17-19-20b22~-20p19p17----19~-17----17--------------------------------------|
B-20b22-----------------------20--------20----20/22-17~----17----------------------|
G-------------------------------------------------------19----21\19-17-19-21-17~---|
D----------------------------------------------------------------------------------|
A----------------------------------------------------------------------------------|
E----------------------------------------------------------------------------------|

E------------------------------------------------------------------------|
B------------------------------------------------------[5]-[7]-----------|
G-17--16-17--14h16--12-14/\/\/\12\11\9\7\6\4\2p0---[5]-------------[5]---|
D--------------------------------------------------------------[5]-------|
A------------------------------------------------------------------------|
E------------------------------------------------------------------------|


-------------------|
-------------------|
-[5]--dive bomb----|
-------------------|
-------------------|
-------------------|


{ Am, C, G, D, C) X 2

Am    C      G    D,C
Me pase la noche,
Am    C      G    D,C
bebiendo tequila,
Am    C      G
todo porque vos,
D    C    Am    C    G   D,C
ya no me quierias.

Am    C      G     D,C
Me puse bien loco,
Am    C      G     D,C
de que no venias,
Am    C      G
pude controlar
D    C    Am    C    G   D,
mi instinto suicida.

(A continuación sigue el coro,
 se puede hacer igual que antes
 solo que en la versión original,
 se hace con los acordes de poder)

  Am    C      G     D,C
Nací para sufrir,
    Am    C      G     D,C
por tu amor maldito,
Am    C      G     D,C
comenzo en la gloria,
  Am    C      G     D,C
hoy es un castigo.

  Am    C      G     D,C
Nací para seguir,
     Am    C      G     D,C
la estrella del camino,
  Am    C      G     D,C
siempre me abandona,
  Am    C      G     D,C
se pierde en el rio.


Am    C      G     D,C
Me pase la noche,
Am    C      G     D,C
esperando el dia,
Am    C      G     D,C
esperando el dia,
Am    C      G     D,C
bebiendo tequila.

 Am    C      G     D,C
Me puse bien loco,
Am    C      G     D,C
encendi un pinito,
Am    C      G     D,C
que se fue quemando
Am    C      G     D,C
solito solito

(coro)
Am    C      G     D,C
Nací para sufrir,
Am    C      G     D,C
por tu amor maldito,
Am    C      G     D,C
comenzo en la gloria,
Am    C      G     D,C
hoy es un castigo.

Am    C      G     D,C
Nací para subir,
Am    C      G     D,C
la cuesta de la vida,
Am    C      G     D,C
y que nunca acabe,
 Am    C      G     D,C
la tequila.

(A continuación viene un cambio)
Bm         G
Donde estas ?,
      Bm         G
te llamo y no me respondes,
Bm         G
oh! mi amor
          C
donde estas ?.
          C
donde estas ?.
          C ...remate.
donde estas ?.

(Coro)
Am    C      G     D,C
Nací para sufrir,
Am    C      G     D,C
por tu amor maldito,
Am    C      G     D,C
comenzo en la gloria,
 Am    C      G     D,C
hoy es un delito.

Am    C      G     D,C
Nací para subir,
Am    C      G     D,C
la cuesta de la vida,
Am    C      G     D,C
y que nunca acabe,
 Am    C      G     D,C
la tequila.
Добавлено: 14.06.2012
Другие материалы по этой песне:
  • Аккорды и текст

Страница создана 06.04.2012
http://primanota.ru/enanitos-verdes/tequila-en-vivo-chords.htm
Привет, Гость.
Предлагаем пройти революционный курс по гитаре.
Подарок от PrimaNota.Ru, забирай!