PrimaNota.ru - самый крупный в мире бесплатный архив песенных текстов, аккордов, табулатур и нот


Enanitos Verdes - Mejor No Hablemos De Amor - текст песни, таба, видео

Регистрация Запомнить меня
Войти через:  Facebook Google Twitter Vk Yandex Mail.ru

Enanitos Verdes - Mejor No Hablemos De Amor - текст песни, таба, видео

Печатать
Просмотров: 92
Bm,G x3 A

con wah

E--x-x-----------|
B--x-x-----------|
G--x-x-2h4-4-4---|
D--x-x-----------|
A--x-x-----------|
E--x-x-----------|

E,G,Bm.A

solo 1:
E-------------------------------------------------------------|
B-10b12~-b12r10p7-10-10b12~--b12r10p7-------------------------|
G-------------------------------------9b10--b10r9p7---9---7---|
D---------------------------------------------------9---9-----|
A-------------------------------------------------------------|
E-------------------------------------------------------------|

E-------------10\9-10-9----------------------------------------------------------|
B-10/12----12-----------10------------10p=7-10/12-10~-12/14-12-14--15b17r15p12---|
G---------x----------------9\6-7-9-----------------------------------------------|
D--------x--------------------------7--------------------------------------------|
A-------x------------------------------------------------------------------------|
E--------------------------------------------------------------------------------|

E----------14-------------------------------------------------------|
B-14-15-17----15/17~-14-15-17b19~-b19r17p15\14----15p14-14h15-------|
G----------------------------------------------16-------------14~---|
D-------------------------------------------------------------------|
A-------------------------------------------------------------------|
E-------------------------------------------------------------------|

E------------9-10-12-10-9--------------------------------------------------|
B------10-12--------------12-10-12-10h12-10----------------------------0---|
G-9/11--------------------------------------11\9p7---9---7-9b11r9-7~---1---|
D--------------------------------------------------9---9---------------2---|
A----------------------------------------------------------------------2---|
E----------------------------------------------------------------------0---|

solo 2:

E--------9-9h10-----7-7/9-------------------9-9h10-----7-7/9-------------------|
B-10/12~--------10~---------------------12~--------10~-------------------------|
G-------------------------11~-7/9-7-6~-----------------------11~---9-6-7/18~---|
D------------------------------------------------------------------------------|
A------------------------------------------------------------------------------|
E------------------------------------------------------------------------------|
Добавлено: 10.08.2013
Другие материалы по этой песне:

Страница создана 13.04.2012
http://primanota.ru/enanitos-verdes/mejor-no-hablemos-de-amor-chords.htm
Привет, Гость.
Предлагаем пройти революционный курс по гитаре.
Подарок от PrimaNota.Ru, забирай!