PrimaNota.ru - самый крупный в мире бесплатный архив песенных текстов, аккордов, табулатур и нот


Enanitos Verdes - Mariposas - аккорды и текст, таба, бас-таба, видео

Регистрация Запомнить меня
Войти через:  Facebook Google Twitter Vk Yandex Mail.ru

Enanitos Verdes - Mariposas - аккорды и текст, таба, бас-таба, видео

Печатать
Просмотров: 104
Mariposas
Enanitos Verdes
INTRO:
   Bm          G            D           A
e------------------------------------------|
B------------------------------------------|
G---/44-4-4-6-7-----4-6-7------------------|
D--------------7~--7------5-4-2-0-2-4-5-2--|
A------------------------------------------|
E------------------------------------------|
   Bm          G           D          A
e------------------------------------------|
B------------------------------------------|
G---/44-4-4-6-7-----4-6-7------------------|
D--------------7~--7-------5-4-5-4-2-------|
A------------------------------------------|
E------------------------------------------|

Bm          G             D
Yo daria lo mejor de mi vida
A
por estar con vos
Bm          G             D
y podría reparar mi alma herida
A
a la luz del sol
Bm          G             D
no es tan cierto que yo vivo como quiero
F#m                 Bm
mas bien hago lo que puedo
G              A          D
viviendo a la sombra de tu amor

Riff1:
e--------------|
B---8-7-5-7----|
G--------------|
D--------------|
A--------------|
E--------------|

Bm          G             D
Las miradas que cruzamos son palabras
A
con el corazon
Bm          G             D
no hay secretos tengo el cielo por mirarte
A
ningun dolor
Bm          G             D
sin embargo sigo siendo un distraido
F#m               Bm
como cuando era un niño
G         A         D      A
dejando mariposas escapar

Riff1:

Bm     G            D     A
Si te vas no tengo nada
Bm                G               A
si te quedas puedo hasta el mundo cambiar
Bm     G           F#m      Bm
o quizas no habré crecido
G            A         D
dejando mariposas escapar
   Bm          G            D           A
e------------------------------------------|
B------------------------------------------|
G---/44-4-4-6-7-----4-6-7------------------|
D--------------7~--7------5-4-2-0-2-4-5-2--|
A------------------------------------------|
E------------------------------------------|
   Bm          G           D          A
e------------------------------------------|
B------------------------------------------|
G---/44-4-4-6-7-----4-6-7------------------|
D--------------7~--7-------5-4-5-4-2-------|
A------------------------------------------|
E------------------------------------------|
Bm           G       D
Yo daria lo mejor de mi vida
A
por estar con vos
Bm           G       D
y podria reparar tu alma herida
A
a la luz del sol
Bm           G       D
sin embargo sigo siendo un distraido
F#m                  Bm
como cuando era un niño
G            A       D     A
dejando mariposas escapar

Riff1:

Bm      G         D    A
Si te vas no tengo nada
Bm      G                  D        A
si te quedas puedo hasta el mundo cambiar
Bm      G              F#m       Bm
o quizas no habré crecido
G            A         D
dejando mariposas escapar

Riff1:

Bm      G         D    A
Si te vas no tengo nada
Bm      G                  D        A
si te quedas puedo hasta el mundo cambiar
Bm      G              F#m       Bm
o quizas no habré crecido
G            A         D
dejando mariposas escapar

Riff1:

Yeaa!!
G            A         D
dejando mariposas escapar

Riff1:

G            A         D
dejando mariposas escapar
Добавлено: 04.06.2013
Другие материалы по этой песне:

Страница создана 04.06.2013
http://primanota.ru/enanitos-verdes/mariposas-chords.htm
Привет, Гость.
Предлагаем пройти революционный курс по гитаре.
Подарок от PrimaNota.Ru, забирай!