PrimaNota.ru - самый крупный в мире бесплатный архив песенных текстов, аккордов, табулатур и нот


Enanitos Verdes - Lamento Boliviano Vivo - таба, видео

Регистрация Запомнить меня
Войти через:  Facebook Google Twitter Vk Yandex Mail.ru

Enanitos Verdes - Lamento Boliviano Vivo - таба, видео

Печатать
Просмотров: 95
Here is the tab for Lamento Boliviano from the album "En Vivo" with both solos. the
is a monster of a solo, both of them are. felipe is a very underrated guitarist. hope you
like it i worked really hard on it :)

    Em   Bm   Am   B7
e---7----7----5----7---|
B---8----7----5----7---|
G---9----7----5----8---|
D---9----9----7----7---|
A---7----9----7----9---|
E---7----7----5----7---|

Em
Me quieren agitar

me incitan a gritar,
   Bm
soy como una roca,

palabras no me tocan
   Am
adentro hay un volcan

que pronto va a estallar
Em                  B7
yo quiero estar tranquilo

 Em
Es mi situacion

una desolacion
 Bm
soy como un lamento,

lamento boliviano
       Am
Que un dia empezo

y no va a terminar
Em             B7
ya nadie hace daño

             Em
Y yo estoy aquí
            Bm
borracho y loco
          A#m-Am
y mi corazon idiota
             Em     B7
siempre brillará

           Em
Y yo te amaré
               Bm
te amare por siempre
            A#m - Am
nena no te peines en la cama
             Em
que los viajantes
             B7
se van a atrasar

solo:

E------------------------------------------------|
B------7-8-7----------7-8~-7---------------------|
G----9-------9-------7-------9-7-9/11\9----------|
D-/9-----------9~---9--------------------7/9\7---|
A------------------------------------------------|
E------------------------------------------------|

E-------------12---------------------------------------------------------|
B----------12----15b17r15p12---------------------------------------------|
G-14b16r14-------------------14b16r14p12--14=b16r14p13p12----14----12~---|
D---------------------------------------------------------14----14-------|
A------------------------------------------------------------------------|
E------------------------------------------------------------------------|

E-----------------------------|
B----------------------12~~---|
G-/11--12-14-/11-12-14--------|
D-----------------------------|
A-----------------------------|
E-----------------------------|

E----------12-------12----15----12-------------------------------------15-17-15h17~---|
B-------12----12-15----12----12----12----------------------------15-17----------------|
G-14b16-------------------------------14b16r14p12-14----12-14/16----------------------|
D----------------------------------------------------14-------------------------------|
A-------------------------------------------------------------------------------------|
E-------------------------------------------------------------------------------------|

E-17p15-17-17/19--15-17--------|
B-----------------------17~~---|
G------------------------------|
D------------------------------|
A------------------------------|
E------------------------------|

E----15-17-18-19-18-17--15-17-18-19-18-17--15-17-17b19r17p15-17---|
B-17--------------------------------------------------------------|
G-----------------------------------------------------------------|
D-----------------------------------------------------------------|
A-----------------------------------------------------------------|
E-----------------------------------------------------------------|

E-15\14------------------------------------------------12~~---|
B-------15-------------15\12---------------------------12~~---|
G----------14\11-12-----------14p12--14b16r14p12-------12~~---|
D-------------------12-----------------------------12---------|
A-------------------------------------------------------------|
E-------------------------------------------------------------|

             Em
Y yo estoy aquí
             Bm
borracho y loco
          A#m-Am
y mi corazon idiota
             Em     B7
siempre brillará

           Em
Y yo te amaré
               Bm
te amare por siempre
            A#m - Am
nena no te peines en la cama
             Em
que los viajantes
             B7
se van a atrasar


             Em
Y yo estoy aquí
             Bm
borracho y loco
          A#m-Am
y mi corazon idiota
             Em     B7
siempre brillará


           Em
Y yo te amaré
               Bm
te amare por siempre
            A#m - Am
nena no te peines en la cama
             Em
que los viajantes
             B7
se van a atrasar

OUTRO:

E----------------------------------------------------|
B-8p7--------------------8p7-------------------------|
G-----9p7-9~---9---9-7~------9p7-9~-----9---9-7~-----|
D------------9---9------------------7-9---9----------|
A----------------------------------------------------|
E----------------------------------------------------|

E--------------------------------------------------|
B-------8-----------10------8p7--------------------|
G-----7---9~------9----11~------9-7-9~-----7h9-7---|
D-7h9--------9h11----------------------7-9---------|
A--------------------------------------------------|
E--------------------------------------------------|

E----------------------------------------------------|
B----------------8p-7---------------8p-7-------------|
G-5~--5-5/7-7----7-(7)--5~-5-7-7----7-(7)--5~--7-7---|
D-5~--5-5/7-7----7-(7)--5~-5-7-7----7-(7)--5~--7-7---|
A-3~--3-3/5-5-----------3~-3-5-5-----------3~--5-5---|
E-------------0------------------0-------------------|

E------------------------------------------|
B------------------------------------------|
G--------11-12-12/14~--12-11~--11\7-9-9~---|
D-----14-----------------------------------|
A-/14--------------------------------------|
E------------------------------------------|

E----------------------------------------|
B----------------------------------------|
G--------11-12-12/14~--12-11-12/16-16~~--|
D-----14---------------------------------|
A-/14------------------------------------|
E----------------------------------------|

E---------------------------------------------------------------------------|
B--------------------------------------12~-12\------------------12-10-8\7---|
G--------11-12-14~-14\--------11-12-14-----------------11-12-14-------------|
D-----14-------------------14-----------------------14----------------------|
A-/14------------------/14----------------------/14-------------------------|
E---------------------------------------------------------------------------|

E------------------------------------------------------------|
B-9/10-8\7---/7-7---/7-7---/7-7---/7-7---7-8-10-/7-----------|
G----------9------9------9------9------9-----------7---------|
D----------------------------------------------------9~-9~---|
A------------------------------------------------------------|
E------------------------------------------------------------|

E----------------------7-10-8-7----8-7------7-------------|
B---------7h8---7h8h10----------10-----10-8---10/11b12~---|
G---6-7-9-----9-------------------------------------------|
D-9-------------------------------------------------------|
A---------------------------------------------------------|
E---------------------------------------------------------|

E-7---------------------------------------------|
B---10-8-7-8-10-10/12~-12\10-8-8--7-8-10-8-7~---|
G-----------------------------------------------|
D-----------------------------------------------|
A-----------------------------------------------|
E-----------------------------------------------|

E----------------------------------------------------|
B-5-3-5/7~-3---------------------3-5-7~---10-10-10---|
G------------2--0-2b3r2p0----2/4--------9------------|
D-------------------------2~-------------------------|
A----------------------------------------------------|
E----------------------------------------------------|

E-----12-15p12-14p12-15p12-17p12-15p12-14p12-15p12-17p12-15p12-14p12-15p12-17p12-15p12-14p12---|
B-/15------------------------------------------------------------------------------------------|
G----------------------------------------------------------------------------------------------|
D----------------------------------------------------------------------------------------------|
A----------------------------------------------------------------------------------------------|
E----------------------------------------------------------------------------------------------|

E-15p12-17p12-15p12-14p12-15p12-17p12-15p12---|
B---------------------------------------------|
G---------------------------------------------|
D---------------------------------------------|
A---------------------------------------------|
E---------------------------------------------|

E---------------------------------------------------------------------------------------------|
B-15p12-15p12-17p12-15p12-17p12-15p12-17p12-15p12-17p12-15p12-17p12-15p12-17p12-15p12----12---|
G-------------------------------------------------------------------------------------15------|
D---------------------------------------------------------------------------------------------|
A---------------------------------------------------------------------------------------------|
E---------------------------------------------------------------------------------------------|

E------------------------------------------------------------------------------------------------|
B------------------------------------------------------------------------------------------------|
G-15-14p12----12-15-14p12----12h15p12----12h15p12----12h15p12----12h15p14p12----12h15p14p12------|
D----------15-------------15----------15----------15----------15-------------15--------------15--|
A------------------------------------------------------------------------------------------------|
E------------------------------------------------------------------------------------------------|

E-----------------------------------------------------------------------|
B-----------------------------------------------------------------------|
G-12h15p14p12-----12h15p14p12--------------------------------------12---|
D-------------15--------------15--12-------------------------12-14------|
A------------------------------------14-14\12p10----10-12/14------------|
E------------------------------------------------12---------------------|


E----------------------------15-17=b19r17p15----17----15-17-18-19-18-17-15-------|
B-------15-17-17b19r17p15--------------------17----17----------------------17~---|
G-14/16-------------------16-----------------------------------------------------|
D--------------------------------------------------------------------------------|
A--------------------------------------------------------------------------------|
E--------------------------------------------------------------------------------|

E-----------------15~----------15~----------15~----------15~----------15~----------15~---|
B-----15-17p15--------17p15--------17p15--------17p15--------17p15--------17p15----------|
G-/16----------16-----------16-----------16-----------16-----------16-----------16-------|
D----------------------------------------------------------------------------------------|
A----------------------------------------------------------------------------------------|
E----------------------------------------------------------------------------------------|

E----------15~---|
B-17p15----------|
G-------16-------|
D----------------|
A----------------|
E----------------|

E-15\14----14----14~----14-15-17-15-17--17-16-15--14----14-------------------------------|
B-------17----17-----17------------------------------17-----15-------10-------10---------|
G--------------------------------------------------------------16\14----12h14----14/16---|
D----------------------------------------------------------------------------------------|
A----------------------------------------------------------------------------------------|
E----------------------------------------------------------------------------------------|

E--------12----12\10--------10-------10-------10---------10-----9s10------|
B-15b17~----15--------12h14----12h14----12h14----12h14------14-------14---|
G-------------------------------------------------------------------------|
D-------------------------------------------------------------------------|
A-------------------------------------------------------------------------|
E-------------------------------------------------------------------------|

E-10-------------------------10-------------------------------------------10-----10h12------|
B----14p12p10--10---10h12h14----14---10--------------------------10h12h14----14--------14---|
G----------------------------------------14-14p12p11----11h12h14----------------------------|
D----------------------------------------------------14-------------------------------------|
A-------------------------------------------------------------------------------------------|
E-------------------------------------------------------------------------------------------|

E--/15-14-12-/17-15p14----14-15--17-19-19/21-19--21/22-21-24-24b26~---|
B----------------------17---------------------------------------------|
G---------------------------------------------------------------------|
D---------------------------------------------------------------------|
A---------------------------------------------------------------------|
E---------------------------------------------------------------------|

E-24-24b26~-24b26~-22-24-24b26-24=b26-24-24b26~-26r24-22-24~---|
B--------------------------------------------------------------|
G--------------------------------------------------------------|
D--------------------------------------------------------------|
A--------------------------------------------------------------|
E--------------------------------------------------------------|

E-22-----------------------------------------------------------------------------------------------|
B----24\22-20-22-22b24--22-20----20\19-20-19----19-------------------------------------------------|
G-----------------------------21-------------21----19-------19--------------------------------19-21|
D-----------------------------------------------------19h21----21\19p17-16--17-19----17-19/21------|
A---------------------------------------------------------------------------------19---------------|
E--------------------------------------------------------------------------------------------------|

E-------19----------22-24-24b26-24-24b26~~~---------------|
B-20-------20-22/24---------------------------------------|
G----21--------------------------------------(3)/\/\/\/---|
D---------------------------------------------------------|
A---------------------------------------------------------|
E---------------------------------------------------------|
Добавлено: 07.09.2013
Другие материалы по этой песне:
  • Аккорды и текст

Страница создана 07.09.2013
http://primanota.ru/enanitos-verdes/lamento-boliviano-vivo-chords.htm
Привет, Гость.
Предлагаем пройти революционный курс по гитаре.
Подарок от PrimaNota.Ru, забирай!