PrimaNota.ru - самый крупный в мире бесплатный архив песенных текстов, аккордов, табулатур и нот


Enanitos Verdes - La Muralla Verde Live - таба, видео

Регистрация Запомнить меня
Войти через:  Facebook Google Twitter Vk Yandex Mail.ru

Enanitos Verdes - La Muralla Verde Live - таба, видео

Печатать
Просмотров: 85
La Muralla Verde off the album "En Vivo". One of the craziest f***ing solos ever!!!!!!!!
any comments or suggestions please sumbit them on the comments page :)
Tabbed by Jose Villarreal

Intro:

|-----------------------2---|--------------------------------|
|--------5p4--4-------2---0-|-------5p4-4-----10/11--11\10---|
|--------6p4--4---2h3-------|-------6p4-4--4-----------------|
|---------------------------|-----------------10/11--11\10---|
|--4--4-------2-------------|--4--4-----2--------------------|
|---------------------------|--------------------------------|

|----------------------------|----------------------------------|
|-------5p4--4-----------7---|-------5p4----4-----4\2-2---------|
|-------6p4--4-4-------6---6-|-------6p4----4-------------------|
|--------------------5-------|-----------------4--4\2-2---1/2---|
|--4--4------2---4/6---------|--4--4-----4--2-------------------|
|----------------------------|----------------------------------|

|----------------------2---|-----------------------------------|
|-------5p4--4-------2---0-|-------5p4--4----9h10-12--11\10----|
|-------6p4--4---2h3-------|-------6p4--4----------------------|
|--------------------------|-----------------10---12--11\10----|
|--4--4------2-------------|--4--4------2----------------------|
|--------------------------|-----------------------------------|

|-------------------------------|----------------|
|-------5p4--4-----------7------|-------5p4--4~~-|
|-------6p4--4---------6----6---|-------6p4--4~~-|
|--------------------5--------5-|----------------|
|--4--4------2---4/6------------|--4--4------2~~-|
|-------------------------------|----------------|

                                                                            X3
|------------------------------|------------------11------------------------|
|o----------11b12~-11b12-11~---|-----------11b12~-----11b12r11p9h11--------o|
|-------9----------------------|-------9----------------------------9----9~-|
|--9h11---9--------------------|--9h11---9----------------------------11----|
|o-----------------------------|-------------------------------------------o|
|------------------------------|--------------------------------------------|

|---------------------------------------|---------------11---------------------------|
|----------11b12~-11-9-11-11b12-11-9-11-|---------11b12~---11b12r11p9h11-------------|
|------9--------------------------------|------9-------------------------9----9~/\/--|
|-9h11---9------------------------------|-9h11---9-------------------------11--------|
|---------------------------------------|--------------------------------------------|
|---------------------------------------|--------------------------------------------|

C#m                   F#7
Estoy parado sobre la muralla que divide
C#m                  F#7
todo lo que fue y lo que será
  C#m                   F#7
estoy mirando como esas viejas ilusiones
  C#m                     F#7
pasando la muralla se hacen realidad
              D#m7     G#m
Pero como el amor de ayer
              D#m7     G#m
Pero como el amor de ayer

            D#m7 G#m      F#7
volvió a desaparecer, desaparecer

|------------------------------|------------------11-----------------------|
|-----------11b12~-11b12-11~---|-----------11b12~-----12r11p9h11-----------|
|-------9----------------------|-------9-------------------------9----[9]~-|
|--9h11---9--------------------|--9h11---9-------------------------11------|
|------------------------------|-------------------------------------------|
|------------------------------|-------------------------------------------|


|------------------------------|------------------11----------------------------|
|-----------11b12~-11b12-11~---|-----------11b12~-----11b12r11p9h11-------------|
|-------9----------------------|-------9----------------------------9----9~/\/--|
|--9h11---9--------------------|--9h11---9----------------------------11--------|
|------------------------------|------------------------------------------------|
|------------------------------|------------------------------------------------|

C#m                   F#7
Estoy parado sobre la muralla que divide
C#m                   F#7
todo lo que amé de lo que amaré
  C#m                    F#7
eeeestoy mirando como mis heridas se cerraron
  C#m                       F#7
y cómo se desangra un nuevo corazón
              D#m7     G#m
Pero como el amor de ayer    Oy Tijuana!

Pero como el amor de ayer

volvió a desaparecer, desaparecer

SOLO:

E---------------------------|
B--------9~~----------------|
G--------9~~----------------|
D--------9~~---11p9--11~~---|
A---------------------------|
E--/18\---------------------|

E--------------------------9h11----9-12/14-12==p11----11--------------|
B—12b14~~--12p9----9-11h12------12-----------------14----12-----------|
G---------------11------------------------------------------11h13~~---|
D---------------------------------------------------------------------|
A---------------------------------------------------------------------|
E---------------------------------------------------------------------|

E-------------11-14-12-11----12-11-------11-----------------------------------|
B----------12-------------14-------14-12----14/16--12-14—14b17~~-14p12--14~~--|
G-------13--------------------------------------------------------------------|
D-11h14-----------------------------------------------------------------------|
A-----------------------------------------------------------------------------|
E-----------------------------------------------------------------------------|

E-------------------------------------------|
B-12----12------------------------12b14~~---|
G----13----13p12\11\10\9--11----9-----------|
D----------------------------11-------------|
A-------------------------------------------|
E-------------------------------------------|

E-9-11----9~-------11-12-14~-12p11----12\---|
B------12----12/14-----------------14-------|
G-------------------------------------------|
D-------------------------------------------|
A-------------------------------------------|
E-------------------------------------------|

                   T            T            T
E-12/14h16p12h14--17-16p14p12--17-16p14p12--17-16p14p12--16p14p12---|
B-------------------------------------------------------------------|
G-------------------------------------------------------------------|
D-------------------------------------------------------------------|
A-------------------------------------------------------------------|
E-------------------------------------------------------------------|

   T       T       T       T       T       T
E---------------------------------------------------|
B-17--16--17--12--17--14--17--16--17--14--17--12=---|
G---------------------------------------------------|
D---------------------------------------------------|
A---------------------------------------------------|
E---------------------------------------------------|

                      T                  T
E----------12h14h16--17-16p14p12h14h16--17-16p14p12---|
B===h14h16--------------------------------------------|
G-----------------------------------------------------|
D-----------------------------------------------------|
A-----------------------------------------------------|
E-----------------------------------------------------|

    T             T       T       T       T
E-------------------------------------------------|
B--17--16p14p12--17--12--17--16--17--14--17--12---|
G-------------------------------------------------|
D-------------------------------------------------|
A-------------------------------------------------|
E-------------------------------------------------|

   T       T       T         T       T         T
E--------------------------------------------------------------------|
B--------------------------------------------------------------------|
G-16--12--16--13--16—13\11--16--13--16--11\9--16—9p8\6\4h6/8---9~~---|
D--------------------------------------------------------------------|
A--------------------------------------------------------------7~~---|
E--------------------------------------------------------------------|

E-----------------------------------|
B-----------------------------------|
G---8--6/8---9--8\6---6-6-8-8-9-9---|
D---x--x-x---x--x-x---x-x-x-x-x-x---|
A---6--4/6---7--6\4---4-4-6-6-7-7---|
E-----------------------------------|

E---------------------------------------------------------------------------------------|
B---------------------------------------------------------------------------------------|
G-/11--11--11--/13---13--13---13-13--13/15--15--15--15/16--16/18--18--18--18-18--18/20--|
D---x---x---x----x----x---x----x--x---x--x---x---x---x--x---x--x---x---x --x--x---x--x--|
A--/9---9---9--/11---11--11---11-11--11/13--13--13--13/14--14/16--16--16--16-16--16/18--|
E---------------------------------------------------------------------------------------|

E-----------------------------------------------------------------------------|
B-----------------------------------------------------------------------------|
G-20--20---20-20--20/21--21--21---21/23---23--23--23----23-----23----23--23---|
D--x---x----x--x---x--x---x---x----x--x----x---x---x-----x------x-----x---x---|
A-18--18---18-18--18/19--19--19---19/21---21--21--21----21-----21----21--21---|
E-----------------------------------------------------------------------------|

E------------------------------------------|
B------------------------------------------|
G-23---23--23--23----23---23--23--23--23---|
D--x----x---x---x-----x----x---x---x---x---|
A-21---21--21--21----21---21--21--21--21---|
E------------------------------------------|

E-------------------------------------------------------------------------------|
B-------------------------------------------------------------------------------|
G-23--23-23----23--23---23-23-23---23--23---23-23----23-23-23-23-23-23-23-23\---|
D--x---x--x-----x---x----x--x--x----x---x----x--x-----x--x--x--x--x--x--x--x----|
A-21--21-21----21--21---21-21-21---21--21---21-21----21-21-21-21-21-21-21-21\---|
E-------------------------------------------------------------------------------|

E--------------------------------|
B-17b19r17--16-17-16-14-16-17~---|
G--------------------------------|
D--------------------------------|
A--------------------------------|
E--------------------------------|

E-14\11--------11h12-14p12-14-12-14/16-12---|
B-------14--14------------------------------|
G-------------------------------------------|
D-------------------------------------------|
A-------------------------------------------|
E-------------------------------------------|

E----12\11----11-------------------------------|
B-14-------14----12------------------12b14~~---|
G-------------------11\10\9--11----9-----------|
D-------------------------------11-------------|
A----------------------------------------------|
E----------------------------------------------|


E-9-----------------------------------|
B---14\12-----9-12---10\5-4-5-7/9~~---|
G----------11-------------------------|
D-------------------------------------|
A-------------------------------------|
E-------------------------------------|


E-------------------------------------------------------------------------------------|
B-7\4h5-7-----------------------------12~--11~--12-14-11~--12-12/14-14~/\--/----------|
G---------6/8~--8\6p4/6wb6wb\1/\--/--------------------------------------\/-----/6~---|
D-------------------------------\/------------------------------------SAME HERE-------|
A-------------------------------------------------------------------------------------|
E-------------------------SLOWLY RAISE BAR--------------------------------------------|


Circus Thing

For this part fret the strings on the guitar with your left hand, muting the strings and as for
your right hand, simply touch the strings with the whammy bar.

|--FEEDBACK------------------------------------|
|----------------------------------------------|
|-/6~~~~~--8~--9-9/11~--11-11/13-8~/\--/-------|
|------------------------------------\/--------|
|--------------------------------AGAIN HERE----|
|----------------------------------------------|


Estoy parado sobre la muralla que divide

todo lo que fue de lo que será

  C#m                      F#7
estoy mirando como esa vieja sicodelia
  C#m                F#7
estoy fijándome como viene y va
              D#m7     G#m
Pero como el amor de ayer
              D#m7     G#m
Pero como el amor de ayer
            D#m7 G#m      F#7
volvió a desaparecer, desaparecer

Outro:

|--------------------------------|--------------------12----------------------------|
|-------------12b14~-12b14-12~---|-------------12b14~----12b14r12p10h12-------------|
|-------10-----------------------|-------10-----------------------------10----10~---|
|-10h12----10--------------------|-10h12----10-----------------------------12-------|
|--------------------------------|--------------------------------------------------|
|--------------------------------|--------------------------------------------------|

|----------------------------------|-------------------12----------------------------|
|-------------12b14~-12b14-12~-12~-|------------12b14~----12b14r12p10h12-------------|
|-------10-------------------------|-------10----------------------------10----10~---|
|-10h12----10----------------------|-10h12----10----------------------------12-------|
|----------------------------------|-------------------------------------------------|
|----------------------------------|-------------------------------------------------|

|----------------------------------|--------------------14-----------------------------|
|-------------14b15~-14b15-14~-14~-|-------------14b15~-----14b15r14p12h14-------------|
|-------10-------------------------|-------12------------------------------12----12~---|
|-10h12----10----------------------|-12h14----12------------------------------14-------|
|----------------------------------|---------------------------------------------------|
|----------------------------------|---------------------------------------------------|
                                                                     X8
|--------------------------------------------|--------------------14--------|
|-------------14b15~-14-12-14-14b15-14-12-14-|-------------14b15~----14b15~-|
|-------12-----------------------------------|-------12---------------------|
|-12h14----12--------------------------------|-12h14----12------------------|
|--------------------------------------------|------------------------------|
|--------------------------------------------|------------------------------|

Wah on

|-----------------------------|
|----------12---12-11~--------|
|----11-13----13-------13-9~--|
|-11~-------------------------|
|-----------------------------|
|-----------------------------|

|-------------------------------------|
|----------12----12-11~--14-14~-\7~---|
|----11-13----13----------------------|
|-11~---------------------------------|
|-------------------------------------|
|-------------------------------------|


|-------------------------------------------|
|----------12----12-11~--\9-7-9-7h9p7-------|
|----11-13----13----------------------8/9---|
|-11~---------------------------------------|
|-------------------------------------------|
|-------------------------------------------|

|-----------------------------------|
|----------12----12-11~-16-17b19~~--|
|----11-13----13--------------------|
|-11~-------------------------------|
|-----------------------------------|
|-----------------------------------|

Wah off

|------------------------------------------------------------------|
|------------------------------------------------------------------|
|------------------------------------------------------------------|
|---------------------------------11-11--9--9----------------------|
|-11--11-11--11-11-11--11-11-11-0-9--9---7--7--11--11-11--11-11-11-|
|-9---9--9---9--9---9--9--9--9--0--------------9---9--9---9--9---9-|

Muchas Gracias!

Chords Used:

 C#m   F#7   D#m7  G#m
|-4-|-|-2-|-|-6-|-|-4-|
|-5-|-|-2-|-|-7-|-|-4-|
|-6-|-|-3-|-|-8-|-|-5-|
|-6-|-|-4-|-|-8-|-|-6-|
|-4-|-|-4-|-|-6-|-|-6-|
|-4-|-|-2-|-|-6-|-|-4-|
Добавлено: 03.09.2013
Другие материалы по этой песне:
  • Аккорды и текст

Страница создана 03.09.2013
http://primanota.ru/enanitos-verdes/la-muralla-verde-live-chords.htm
Привет, Гость.
Предлагаем пройти революционный курс по гитаре.
Подарок от PrimaNota.Ru, забирай!