PrimaNota.ru - самый крупный в мире бесплатный архив песенных текстов, аккордов, табулатур и нот


Enanitos Verdes - Guitarras Blancas - таба, бас-таба, видео

Регистрация Запомнить меня
Войти через:  Facebook Google Twitter Vk Yandex Mail.ru

Enanitos Verdes - Guitarras Blancas - таба, бас-таба, видео

Печатать
Просмотров: 90
tqMmM rubi 

Acordes:
   E A D G B e
C  X X 8 8 8 8
A# 6 8 8 X X X
G# 4 6 6 X X X
E  X 7 9 9 X X

Intro (Bajo o Guitar):

e-----------------------------------I
B-----------------------------------I
G-----------------------------------I
D-----------------------------------I
A-----------------------------------I
E---11/13/11------------------------I

(Usa el tremolo cuando toques las dos notas:
primero hacia las cueras y luego hacia su
posicion original arriba. Escucha el CD)
e-----------------------------------I
B----//8~---------------------------I
G----//8~---------------------------I
D-----------------------------------I
A-----------------------------------I
E-----------------------------------I


C (rasgueale!)
Una guitarra blanca

rompiendo el silencio

es de lo mas honesto

que yo ahora puedo escuchar


A#                      C
Por favor, dejennos bailar

A#                       C
Por favor que nos dejen bailar


C
Es uno de esos dias

e----------------------------------I
B-------------------**8-10-10^-8---I
G----------------**8------------8~-I
D-------------**8------------------I
A----------------------------------I
E----------------------------------I

en que me duele la espalda

Y aunque estoy cansado

yo necesito un poco de diversion

A#                      C
Por favor, dejennos bailar

A#                       C
Por favor que nos dejen bailar


G#          A#            G#
No hablen ahora de Nueva York
            A#            G#
estar en Roma o Disneyworld
            A#                      C
yo solo quiero que nos dejen bailar aca                          C  A#

e----12/12------//8//---------------I
B----13/13--------------------------I
G----12/12---//8~-------------------I
D-----------------------------------I
A-----------------------------------I
E-----------------------------------I

C
No es un escapismo

no estoy bajando la guardia

Yo solo necesito tan solo

un poco, un poco de diversion


A#                      C
Por favor, dejennos bailar

A#                       C
Por favor que nos dejen bailar


G#          A#            G#
No hablen ahora de Nueva York
            A#            G#
estar en Roma o Disneyworld
            A#                      C
yo solo quiero que nos dejen bailar aca

e----12/12--------------------------I
B----13/13--------------------------I
G----12/12--------------------------I
D-----------------------------------I
A-----------------------------------I
E-----------------------------------I

C
Solo (C escala pentatonica menor)
e-----------------------------------I
B-----20^---------------------------I
G----20-- 20------------------------I
D---20-----20~-18~//~---------------I
A-----------------------------------I
E-----------------------------------I

A#    G#    A#

              toca 3 veces esta parte
e---------|-------------------18--------I
B---20-18-|------18-20-18-------21-20-18I
G---------|-17-20----------20-----------I
D---------|-----------------------------I
A---------|-----------------------------I
E---------|-----------------------------I

termina el solo asi:
e----------------------------I
B-------18-20-18-------------I
G--17-20----------20//~------I
D----------------------------I
A----------------------------I
E----------------------------I


(adaptacion del Teclado en la parte de los bongos)
e-----------------------------------I
B--20/20/2018/18/18----17/19/20~----I
G------------------20/20------------I
D-----------------------------------I
A-----------------------------------I
E-----------------------------------I

e----------------------------18~^---I
B--20/20/2018/18/18----17/19/-------I
G------------------20/20------------I
D-----------------------------------I
A-----------------------------------I
E-----------------------------------I


G#          A#            G#
No hablen ahora de Nueva York
            A#            G#
estar en Roma o Disneyworld

play with the tremolo
e-----------------------------------I
B-----------------------------------I
G-----------------------------------I
D--20//~--20//~---------------------I
A-----------------------------------I
E-----------------------------------I

            A#                      C
yo solo quiero que nos dejen bailar aca

(Solo saxofono)
C

A#
Добавлено: 25.10.2013
Другие материалы по этой песне:

Страница создана 23.04.2012
http://primanota.ru/enanitos-verdes/guitarras-blancas-chords.htm
Привет, Гость.
Предлагаем пройти революционный курс по гитаре.
Подарок от PrimaNota.Ru, забирай!