PrimaNota.ru - самый крупный в мире бесплатный архив песенных текстов, аккордов, табулатур и нот


Enanitos Verdes - El Extrao Del Pelo Largo - таба, видео

Регистрация Запомнить меня
Войти через:  Facebook Google Twitter Vk Yandex Mail.ru

Enanitos Verdes - El Extrao Del Pelo Largo - таба, видео

Печатать
Просмотров: 77
E---------------------------------|--------------------------------|------|
B-----8---8p7~-----8-----7~-------|o-8---8p7~-----8-----7~--------o|------|
G-----7---7--------7-----7~-----7-|--7---7--------7-----7~-----7---|-2~---|
D-0-0---0------0-0---0-0----7-9---|----0------0-0---0-0----7-9-----|-2~---|
A---------------------------------|o------------------------------o|-0~---|
E---------------------------------|--------------------------------|------|


E-----------------------0---3---5--------------------------|
B-8---8p7-----8-----7---0---3---5---7-8-7-8-7--------------|
G-7---7-------7-----7---1---4---6---7-7-7-7-7--[5]\----/---|
D---0-----0-0---0-0-----2---5---7------------------\--/----|
A-----------------------2---5---7-------------------\/-----|
E-----------------------0---3---5--------------------------|

E-----------------------0-----------------------------------------3-2-0-2---|
B-8---8p7-----8-----7---0-------------------------------------3---3---------|
G-7---7-------7-----7---1-------------2---2--0h2p0h2p0h2p0----2---2---------|
D---0-----0-0---0-0-----2---5---4--2--2-2------------------5--0---0---------|
A-----------------------2---3---2--2--0--------------------3----------------|
E-----------------------0----------0----------------------------------------|

E------------5--------------0----------------|
B--------5b7===r5-0---0---3---3--------------|
G-----4---------------1---2------5---2---2---|
D-4---4---------------2---0------5---2-2-2---|
A-4---2---------------2----------3---0---0---|
E-2-------------------0----------------------|


E-----------------------0---3---5--------------------------|
B-8---8p7-----8-----7---0---3---5---7-8-7-8-7--------------|
G-7---7-------7-----7---1---4---6---7-7-7-7-7--[5]\----/---|
D---0-----0-0---0-0-----2---5---7------------------\--/----|
A-----------------------2---5---7-------------------\/-----|
E-----------------------0---3---5--------------------------|

Mucho Wah

E-------------------------------------------------------------------------------|
B----------13b15~~-b15r13-10----13b15~----10h12h13p10----10h13p10----10h13p10---|
G-[5]/\/---------------------12--------12-------------12----------12------------|
D-------------------------------------------------------------------------------|
A-------------------------------------------------------------------------------|
E-------------------------------------------------------------------------------|

E----------------------------------------------------|
B----10h13p10----10h13p10----------------------------|
G-12----------12----------13-12p11p10----12----10~---|
D-------------------------------------12----12-------|
A----------------------------------------------------|
E----------------------------------------------------|

E-----------------------------13bb15---13---------------------------------|
B-------13-15-15b17r15p13--15------------15-13-----------------------11---|
G-12/14----------------------------------------14-14p13\10--12----10------|
D--------------------------------------------------------------12---------|
A-------------------------------------------------------------------------|
E-------------------------------------------------------------------------|


E----------------------------------------------------------------------|
B-10h-13p12p10----12p10----10------------------------------------------|
G--------------13-------13----13p12p10----12----10\5~~-------------7---|
D--------------------------------------12----12--------7\5-3-5-3/5-----|
A----------------------------------------------------------------------|
E----------------------------------------------------------------------|

E------------------------------20b22--20b22~~--------10-------10-------10-------10---------------|
B-/13--x ?------/20--x ?-----------------------------10-------10-------10----------10-----10--10-|
G-/14-----------/21--------------------------12b14------12b14----12b14----12b14----12b14-b14-b14-|
D------------------------------------------------------------------------------------------------|
A------------------------------------------------------------------------------------------------|
E------------------------------------------------------------------------------------------------|


E------------------------|
B-7--8-------------------|
G-7--7--x-?-11p7p0 x-?---|
D------------------------|
A------------------------|
E------------------------|
Добавлено: 04.08.2013
Другие материалы по этой песне:
  • Аккорды и текст

Страница создана 04.08.2013
http://primanota.ru/enanitos-verdes/el-extrao-del-pelo-largo-chords.htm
Привет, Гость.
Предлагаем пройти революционный курс по гитаре.
Подарок от PrimaNota.Ru, забирай!