PrimaNota.ru - самый крупный в мире бесплатный архив песенных текстов, аккордов, табулатур и нот


Enanitos Verdes - Del Cairo A Paris Vivo - таба, видео

Регистрация Запомнить меня
Войти через:  Facebook Google Twitter Vk Yandex Mail.ru

Enanitos Verdes - Del Cairo A Paris Vivo - таба, видео

Печатать
Просмотров: 75
Del Cairo A Paris en vivo. i got it all from the dvd, couldnt find a recorded version of 
live.

Intro:
|------3\1/3\1--1h3-1----------3\1/3--3--3h5-3---------|
|o-/6--5\3/5\3--------3----/6--5\3/5--5--------5-------|
|--/7-------------------2--/7---------5----------5-----|
|-------------------------------------5----------------|
|o-----------------------------------------------------|
|------------------------------------------------------|

                                                 1st           2nd
-----3\1/3--5--5------------------5--|------------|-8/10-8----------------|
-/6--5\3/5--6----6---------5------6--|-------6---o|--------10-10\8-6~-----|
-/7---------7------------5---5----7--|-----5---7~-|-----------------------|
------------7----------5----------7--|-5h7--------|-----------------------|
------------5---------------------5--|-----------o|-----------------------|
---------------------5---------------|------------|-----------------------|


   Verso:                dm                C
          Del Cairo a Paris, cruze por el mar
                           A#           C     dm
          Mientras que la luna, se asomaba fugaz.

                     dm              C
          Un siglo paso, testigo fue el sol
                      A#          C          dm
          Amor a la egipcia, Sacrifica el corazon.

    Coro:
                 C          dm
          Busco mas, un instante maass
                   A#   C       dm
          Como un rey,     insaciable.

                      C          dm
          Frente al Dios, que vigila el viento
                 A#      C          dm
          Nos Juramos,      eterno amor.

|------3\1/3\1--1h3-1----------3\1/3--3--3h5-3---------|
|--/6--5\3/5\3--------3----/6--5\3/5--5--------5-------|
|--/7-------------------2--/7---------5----------5-----|
|-------------------------------------5----------------|
|------------------------------------------------------|
|------------------------------------------------------|


-----3\1/3--5--5------------------5--|------------|
-/6--5\3/5--6----6---------5------6--|-------6----|
-/7---------7------------5---5----7--|-----5---7~-|
------------7----------5----------7--|-5h7--------|
------------5---------------------5--|------------|
---------------------5---------------|------------|

   Verso:

          (dm_C_A#_C_dm)
          Del cairo a paris, Cruze sin pensar
          Que amor a la egipcia, es dificil olvidar.
          (dm_C_A#_C_dm)
          Un siglo paso, testigo fue el sol
          Amor a la egipcia, sacrifica el corazon.

   Coro:
          (C_dm_A#_C_dm)
          El desierto, nos trajo la sed
          Y el oasis,      fue nuestra piel.
          (C_dm_A#_C_dm)
          Por las noches, Abrigandonos
          Esta llama,      es mi verso de estrellas.


   Verso:
          ((dm_C_A#_C_dm)

          Del cairo a paris, cruze sin pensar
          Que Amor a la egipcia, es dificil encontrar.


|--------------------------------------------|-------------17~-17-18-18/20~--17h18-18~--|
|-o------8/10~-10~--10-11-11/13~--10h11-10~-o|o-/15~-15-15-----------------------------o|
|--/7--7-------------------------------------|------------------------------------------|
|--------------------------------------------|------------------------------------------|
|-o-----------------------------------------o|o----------------------------------------o|
|--------------------------------------------|------------------------------------------|

A a aaaaaaaa, aaa a aaaaaa
(A#_F_A#_am)

|------3\1/3\1--1h3-1----------3\1/3--3--3h5-3---------|
|--/6--5\3/5\3--------3----/6--5\3/5--5--------5-------|
|--/7-------------------2--/7---------5----------5-----|
|-------------------------------------5----------------|
|------------------------------------------------------|
|------------------------------------------------------|


-----3\1/3--5--5------------------5--|------------|-----3\1/3\1---|
-/6--5\3/5--6----6---------5------6--|-------6----|-/6--5\3/5\3---|
-/7---------7------------5---5----7--|-----5---7~-|-/7------------|
------------7----------5----------7--|-5h7--------|---------------|
------------5---------------------5--|------------|---------------|
---------------------5---------------|------------|---------------|

-------------------------------------------------------------|
--------6---8-6-8b-8-6----------------------------6----------|
-5-7-7~---7------------7~--5------------------5-7---7-7~-----|
-----------------------------7-6\5~-3---3-5/7----------------|
--------------------------------------5----------------------|
-------------------------------------------------------------|

--------------------------------------|
-----------------------------6-6------|
-5-----------7/9-5-7-5h7~--7-----7~---|
---7-6\5~-3---------------------------|
--------------------------------------|
--------------------------------------|

--------10-------10----13-10~----------------------------13-15-17-13h15~----|
-----10----10-13----10--------13b-13-10------------13-15--------------------|
-12b------------------------------------12-10~--14--------------------------|
----------------------------------------------------------------------------|
----------------------------------------------------------------------------|
----------------------------------------------------------------------------|

---------------------------------10-12----10-10-13-12-10----10-------------|
-15-15\13-10-13-10-----------13b-------13----------------13----10-13-------|
-------------------12----10~-----------------------------------------12~---|
----------------------12---------------------------------------------------|
---------------------------------------------------------------------------|
---------------------------------------------------------------------------|

---------------------------------------3\1/3---1~------|
----6-8-8brp6---8---6--------------/6--5\3/5---3~------|
-/7-----------7---7---7-5----------/7----------2~------|
--------------------------7\5-3----------------0~------|
--------------------------------5~---------------------|
-------------------------------------------------------|
Добавлено: 25.07.2013
Другие материалы по этой песне:
  • Аккорды и текст

Страница создана 25.07.2013
http://primanota.ru/enanitos-verdes/del-cairo-a-paris-vivo-chords.htm
Привет, Гость.
Предлагаем пройти революционный курс по гитаре.
Подарок от PrimaNota.Ru, забирай!