PrimaNota.ru - самый крупный в мире бесплатный архив песенных текстов, аккордов, табулатур и нот


Enanitos Verdes - Cordillera Live - таба, видео

Регистрация Запомнить меня
Войти через:  Facebook Google Twitter Vk Yandex Mail.ru

Enanitos Verdes - Cordillera Live - таба, видео

Печатать
Просмотров: 96
Fixed up the solo. Pretty sure its 100% now.

1/-------------------------------------------------------|
2/----10----10-10----10----10s8----8----8-8----8----8s10-|
3/--9-----9--------9-----9-------7----7------7----7------|
4/-------------------------------------------------------|
5/-------------------------------------------------------|
6/-------------------------------------------------------|

/-----------------------------------------------------|
/----10----10-10----10----10s8----8---8---------------|
/--9-----9--------9-----9-------7---7----10--9--7—-5--|
/-----------------------------------------------------|
/-----------------------------------------------------|
/-----------------------------------------------------|

/-------------------------------------------------------|
/----10----10-10----10----10s8----8----8-8----8----8s10-|
/--9-----9--------9-----9-------7----7------7----7------|
/-------------------------------------------------------|
/-------------------------------------------------------|
/-------------------------------------------------------|

/-----------------------------------------------------|
/----10----10-10----10----10s8---------8--------------|
/--9-----9--------9-----9-------7-7—7----10--9--7—-5--|
/-----------------------------------------------------|
/-----------------------------------------------------|
/-----------------------------------------------------|

Después viene esto:


1/---------8-7-5----------7-5-3----------5-3-----5-5-------------------|
2/--5-5-5--------5--5-5-5-------3—-3-3-3-----3s5------5------5---3-----|
3/------------------------------------------------------5---5------4---|
4/--------------------------------------------------------7----------6-|
5/---------------------------------------------------------------------|
6/---------------------------------------------------------------------|

/-----------12-10-8--------------10-8-7----------7s8-7-------------|
/--10-10-10---------10—-10-10-10--------8—-8-8-8-------8—-10s13-13-|
/------------------------------------------------------------------|
/------------------------------------------------------------------|
/------------------------------------------------------------------|
/------------------------------------------------------------------|

/--12-------12—-10--------------------|
/----13---13------12----12-13—-10-----|
/------14-----------13-------------1--|
/----------------------------------2--|
/----------------------------------2--|
/----------------------------------0--|


Am                 G
Quien te ha visto quien te ve
Am                 G
En la Cordillera de los Andes    aauuuumm
Am          G           Am      G
Nunca me dejas de sorprender

Am             G
Viento blanco que más da
Am                 G
que por mí pueden pasar las horas
Am               G             Am
quiero estar contigo un tiempo más  yeeaahh

1/---------8-7-5----------7-5-3-----------5s8—7--------------|
2/--5-5-5--------5--5-5-5-------3—-3-3-3---------8—10s13-13--|
3/-----------------------------------------------------------|
4/-----------------------------------------------------------|
5/-----------------------------------------------------------|
6/-----------------------------------------------------------|

/--12-------12—-10-----|
/----13---13------12---|
/------14-----------13-|
/----------------------|
/----------------------|
/----------------------|

Am            G          Am     G
Y asi podrán pasar los años
Am     G             Am       G
y yo tomar mil direcciones
Am          G              Am
Sé que he dejado un mundo atrás
           G          Am
siguiendo siempre un ideal
           G       F
como un valiente cazador
    G
de las estrellas

Am            G
se vive, la libertad
Am             G
se siente, la libertad
Am              G          Am         G
te envuelve, la magia del lugar

Am            G
se vive, la libertad
Am             G
se siente, la libertad
Am              G          Am         G
te envuelve, la magia del lugar

(solo):

1/------------7-8-7----------------------------------------------------------|
2/-------8-10-------8--------------------5-8-5-6~-5---5/6--5-----------------|
3/--/9~~--------------7\5-4/5\4----5-7-5-----—------7--------7-5-7/9\7-5—7~--|
4/------------------------------5~-------------------------------------------|
5/---------------------------------------------------------------------------|
6/---------------------------------------------------------------------------|

----------------|
---5------------|
—5---5-7-5/7~~--|
----------------|
----------------|
----------------|

--------------7-8-7---------7----------------10-12-13-12-10-12-13-|
---------8-10-------10-8-10---10~—--10-12-13----------------------|
--7-9-10----------------------------------------------------------|
------------------------------------------------------------------|
------------------------------------------------------------------|
------------------------------------------------------------------|

--15-13-12-13-15-17-17----13-12-13-12-------------|
--------------------------------------15-15b17~---|
--------------------------------------------------|
--------------------------------------------------|
--------------------------------------------------|
--------------------------------------------------|

---------------------------------------------------|
--13-12-13s15-13-12\10----10/12-10~--8-------------|
-----------------------12--------------10\9-7--1---|
-----------------------------------------------2---|
-----------------------------------------------2---|
-----------------------------------------------0---|


Am                 G
Quien te ha visto quien te ve
Am                      G
En la Cordillera de los Andes    aauuumm
Am         G             Am      G
Nunca me dejas de sorprender

Am             G
Viento blanco que más da
Am                          G
que por mí pueden pasar las horas
Am                   G                         Am                G
quiero estar aquí en Phoenix unos cuantos días más por lo menos


Am      G        Am   G
hay una nube pasajera
Am      G      Am       G
tocando los picos nevados
Am          G         Am
Sé que he dejado un mundo atras
Am         G           Am
siguiendo siempre un ideal
Am          G       F
como un valiente cazador
    G
de las estrellas

Am            G
se vive, la libertad
Am             G
se siente, la libertad
Am              G          Am      G
te envuelve, la magia del lugar

Am            G
se vive, la libertad
Am             G
se siente, la libertad
Am              G          Am      G
te envuelve, la magia del lugar

se vive...
se siente...
te envuelve, la magia del lugar

se vive...
se siente...
te envuelve, la magia del lugar

Am            G
se vive, la libertad
Am             G
se siente, la libertad
Am              G          Am      G
te envuelve, la magia del lugar

1/---------8-7-5----------7-5-3----------5-3-----5-5-------------------|
2/--5-5-5--------5--5-5-5-------3—-3-3-3-----3s5------5------5---3-----|
3/------------------------------------------------------5---5------4---|
4/--------------------------------------------------------7----------6-|
5/---------------------------------------------------------------------|
6/---------------------------------------------------------------------|

/-----------12-10-8--------------10-8-7----------7s8-7-------------|
/--10-10-10---------10—-10-10-10--------8—-8-8-8-------8—-10s13-13-|
/------------------------------------------------------------------|
/------------------------------------------------------------------|
/------------------------------------------------------------------|
/------------------------------------------------------------------|

/--12-------12—-10----------------|
/----13---13------12----12-13—-10-|
/------14-----------13------------|
/---------------------------------|
/---------------------------------|
/---------------------------------|
Acá termina y después vuelve a empezar:

1/-------------------------------------------------------|
2/----10----10-10----10----10s8----8----8-8----8----8s10-|
3/--9-----9--------9-----9-------7----7------7----7------|
4/-------------------------------------------------------|
5/-------------------------------------------------------|
6/-------------------------------------------------------|

/-----------------------------------------------------|
/----10----10-10----10----10s8----8---8---------------|
/--9-----9--------9-----9-------7---7----10--9--7—-5--|
/-----------------------------------------------------|
/-----------------------------------------------------|
/-----------------------------------------------------|

/-----------------------------------------------------------------|
/--------10-10----10-10----10----10s8------8-8----8-8----8---8s10-|
/--9-9-9--------9--------9-----9-------7-7-----7------7----7------|
/-----------------------------------------------------------------|
/-----------------------------------------------------------------|
/-----------------------------------------------------------------|

/---------------------------------------------------------------|
/--------10-10----10-10----10----10s8----8----8-----------------|
/--9-9-9--------9--------9-----9-------7----7----10-9-7---------|
/-------------------------------------------------------10------|
/---------------------------------------------------------------|
/---------------------------------------------------------------|

/--------------------------------------------------------|
/---------13-13-----13-13-----13-13-13-12---------12-12—-|
/--12-12---------12--------12--------------12-12---------|
/--------------------------------------------------------|
/--------------------------------------------------------|
/--------------------------------------------------------|

/--------------------------|
/----12-12-----12----12-13-|
/-12--------12----12-------|
/--------------------------|
/--------------------------|
/--------------------------|

/------------------------------------------------|
/---------13-13-13-----13-13-13-----13-13-13-12--|
/--12-12------------12-----------12--------------|
/------------------------------------------------|
/------------------------------------------------|
/------------------------------------------------|

/----------------------------------|
/--------12----13-12-10----10------|
/--12-12----12----------12---------|
/----------------------------------|
/----------------------------------|
/----------------------------------|

1/-------------------------------------------------------|
2/----10----10-10----10----10s8----8----8-8----8----8s10-|
3/--9-----9--------9-----9-------7----7------7----7------|
4/-------------------------------------------------------|
5/-------------------------------------------------------|
6/-------------------------------------------------------|
                                                           Am(x3)
/----------------------------------------------------------5---|
/----10----10-10----10----10s8----8---8--------------------5---|
/--9-----9--------9-----9-------7---7----10--9--7—-5-------5---|
/----------------------------------------------------------7---|
/----------------------------------------------------------7---|
/----------------------------------------------------------5---|
Добавлено: 20.07.2013
Другие материалы по этой песне:
  • Аккорды и текст

Страница создана 20.07.2013
http://primanota.ru/enanitos-verdes/cordillera-live-chords.htm
Привет, Гость.
Предлагаем пройти революционный курс по гитаре.
Подарок от PrimaNota.Ru, забирай!