PrimaNota.ru - самый крупный в мире бесплатный архив песенных текстов, аккордов, табулатур и нот


Enanitos Verdes - Cada Vez Que Te Digo Adios - таба, бас-таба, видео

Регистрация Запомнить меня
Войти через:  Facebook Google Twitter Vk Yandex Mail.ru

Enanitos Verdes - Cada Vez Que Te Digo Adios - таба, бас-таба, видео

Печатать
Просмотров: 92
Guitarra 1: (Cuatro veces). Prácticamente es lo mismo las cuatro veces.
   E                                  C#m                A          B
e:----------------------------------|------------------------------------------|
B:------9---7-----10---9----7h9-7---|----10----9-------12----10-----9h10-9-----|
G:------------9-------------------9-|------------11------------------------9---|
D:--9-9---9-----9----9----9---------|-11----11------11----11-----11------------|
A:----------------------------------|------------------------------------------|
E:----------------------------------|------------------------------------------|


Guitarra 2: (Cuatro veces)
   E                                  C#m                A          B
e:---0-----0----------0-----0-------|---0-----0------------0-------------------|
B:-----0-----0---0------0-----0-----|-----5-----5---5--------2------------0----|
G:-------1-----1----------1---------|-------6-----6---------------------4------|
D:-2----------------2-----------2/--|---------------------------------4--------|
A:----------------------------------|-4------------------0--------0-2----------|
E:----------------------------------|------------------------------------------|

[Figura 1]
   E                          C#m                  A
e:-------0---------0-------|---4--4-------4-----|--5--5--------5--7/9----------|
B:---------0---------0-----|---5----5-------5---|--5----5----5-----------------|
G:-------------2/4-----4---|---6----------------|--6-------6-------------------|
D:-------------------------|---6----------------|--7---------------------------|
A:-------------------------|---4----------------|--7---------------------------|
E:---0---------------------|--------------------|--5---------------------------|

   F#m          B
e:-------0------------2-------|
B:---------0------------------|
G:-----2-----2------4---4-----|
D:---4------------4-------4---|
A:--------------2-------------|
E:----------------------------|


[Figura 2]
   E                          C#m                  A
e:-------0---------0-------|---------7/9--9--7--|--5-----5-----7-----9---------|
B:---------0---------0-----|---------7/9--9--7--|--5---------------------------|
G:-------------2/4-----4---|--------------------|--6---6---6/7---7/9-----------|
D:-------------------------|--------------------|--7---------------------------|
A:-------------------------|--------------------|--7---------------------------|
E:---0---------------------|--------------------|--5---------------------------|

   F#m          B
e:--0----0-0----2--2-2--------|
B:--0----0-0----4--4-4--------|
G:--2----2-2----4--4-4--------|
D:--4----4-4----4--4-4--------|
A:--4-----------2-------------|
E:--2-------------------------|


E
Nena no te pongas mal          \
                                \
C#m                              \
sabés que esto cambiará.          \
                                   [Figura 1]
A                                 /
Yo luche por tanto tiempo        /
                                /
F#m              B 		   /
por lograr lo que ahora tengo.

E
Que es muy grande la ciudad     \
                                 \
C#m                               \
si no estas bien convencido        \
                                    [Figura 2]
A                                  /
que querés llegar bien alto       /
                                 /
F#m             B               /
aunque sea duro el camino.


Coro:

     A                  D#
Y tenés que dejar a la gente que amás

    G#m                       D             C#
y a ella que te mira con tristeza y alegria

      F#m               Am      G#m
y te dice: 'que te vaya bien mi amor...

         C#    F#m               B
yo te espero, siempre te esperaré...'


Solo 1:
  E               C#m                    A                    F#m
e:---------------|----------------------|--------------------|------------|
B:---------------|----------------------|--------------------|------------|
G:---------------|----------------------|--------------------|------------|
D:---6-----------|---6------------------|-6-7-7---6-7-9-7----|-6-7-7------|
A:-----9-7-6-7-7-|-----9-7-6-7-7--7-7-7-|-------7----------7-|------------|
E:-7-------------|-7--------------------|--------------------|------------|

  B
e:------11-12-11---------|
B:---------------12~~~---|
G:-----------------------|
D:-11--------------------|
A:-----------------------|
E:-----------------------|


[Figura 3]
   E                          C#m                  A
e:-----------------0-------|---4--4----------------|--5---5----7---9-----------|
B:-------------------0-----|---5----5----7-5--5-4--|--5------------------------|
G:-------------------------|---6-------------------|--6--------7---9-----------|
D:-------------------------|---6-------------------|--7------------------------|
A:-------------------------|---4-------------------|--7------------------------|
E:---0---------------------|-----------------------|--5------------------------|

   F#m          B
e:--0----0-0----2--2-2--------|
B:--0----0-0----4--4-4--------|
G:--2----2-2----4--4-4--------|
D:--4----4-4----4--4-4--------|
A:--4-----------2-------------|
E:--2-------------------------|

E
Por favor no tengas miedo           \
                                     \
C#m                                   \
vos me vas a sostener y                \
                                        [Figura 3]
A                                      /
cuando todo sea adverso               /
                                     /
   F#m                   B          /
pensando en vos voy a estar muy bien.


   E
Para cargar sobre mis hombros

 C#m
a este mundo que al fin

A
pesa por la envidia y el odio

F#m                       B
de la gente que no puede ser feliz.

Coro:

     A                  D#
Y tenés que dejar a la gente que amás

    G#m                       D             C#
y a ella que te mira con tristeza y alegria

      F#m               Am      G#m
y te dice: 'que te vaya bien mi amor...

         C#    F#m               B
yo te espero, siempre te esperaré...'

Inter de teclado en B, D#, F#, G. O en guitarra:

e:-------2-3----|
B:-----4--------|
G:---4----------|
D:--------------|
A:--------------|
E:--------------|

Solo 2:
  E                                  C#m
e:---------------------------------|----------------------------4-7-7/9-7-----|
B:-4/5-4-2---2/4-------------------|----------------------5-5h7---------------|
G:---------4-----4----1------------|----------------4-4/6---------------------|
D:-----------------4----2-4--------|-2h4-2------4/6---------------------------|
A:---------------------------------|-------4-2--------------------------------|
E:---------------------------------|------------------------------------------|

  A                                      F#m               B
e:-------------------------------------|--------------------------------------|
B:-9\7-5---7b9r7--5-4-5-4---4---4---4--|-5-5/7-5---5-4-5---4------------------|
G:-------6----------------6---6---6----|---------6-------6---4-4/6-4----------|
D:-------------------------------------|--------------------------------------|
A:-------------------------------------|--------------------------------------|
E:-------------------------------------|--------------------------------------|

  E                                        C#m
e:---12-11-12-9-11-7-9-5-7-4-5-2-4-0---|---12-11-12-9-11-7-9-5-7-4-5-2-4-0----|
B:-------------------------------------|--------------------------------------|
G:-------------------------------------|--------------------------------------|
D:-------------------------------------|--------------------------------------|
A:-------------------------------------|--------------------------------------|
E:-------------------------------------|--------------------------------------|

  A                            F#m                        B
e:----------4-5-7-4--5-4-----|----------4---5------9-----|-12/14-12-----------|
B:------5-7--------------5---|------5-7------------------|----------12--------|
G:--4/6----------------------|--4/6-------6---6-6----6---|--------------------|
D:---------------------------|---------------------------|--------------------|
A:---------------------------|---------------------------|--------------------|
E:---------------------------|---------------------------|--------------------|

A                   D#
Tengo que pensar en otra cosa

    G#m                C#
es hora de cambiar el rumbo

   F#m                 Am
el mundo esta girando locamente

  G#m                       C#
y yo ya estoy cansado de estar tan cuerdo

F#m      B
oh, mi amor.

Coro:
     A                  D#
Y tenés que dejar a la gente que amás

    G#m                       D             C#
y a ella que te mira con tristeza y alegria

      F#m               Am      G#m
y te dice: 'que te vaya bien mi amor...

         C#    F#m               B
yo te espero, siempre te esperaré...'

[Inter De teclado]


Guitarra 1: (Dos veces).
   E                                  C#m                A          B
e:----------------------------------|------------------------------------------|
B:------9---7-----10---9----7h9-7---|----10----9-------12----10-----9h10-9-----|
G:------------9-------------------9-|------------11------------------------9---|
D:--9-9---9-----9----9----9---------|-11----11------11----11-----11------------|
A:----------------------------------|------------------------------------------|
E:----------------------------------|------------------------------------------|


Guitarra 2: (Dos veces)
   E                                  C#m               A        B
e:---0-----0----------0-----0-------|---0-----0----------0--------------------|
B:-----0-----0---0------0-----0-----|-----5-----5---5------2-----------0------|
G:-------1-----1----------1---------|-------6-----6------------------4--------|
D:-2----------------2-----------2/--|------------------------------4----------|
A:----------------------------------|-4----------------0-------0-2------------|
E:----------------------------------|-----------------------------------------|

  E                                    C#m                A       B
e:--12-11-12-9-11-7-9-5-7-4-5-2-4-0--|---12-11-12-9-11-7-9-5-7-4-5-2-4-0------|
B:-----------------------------------|----------------------------------------|
G:-----------------------------------|----------------------------------------|
D:-----------------------------------|----------------------------------------|
A:-----------------------------------|----------------------------------------|
E:-----------------------------------|----------------------------------------|

  E                                    C#m                 A        E
e:--12-11-12-9-11-7-9-5-7-4-5-2-4-0--|---12-11-12-9-11-7-9-5---5-5--4---------|
B:-----------------------------------|-------------------------5-5--5---------|
G:-----------------------------------|----------------------------------------|
D:-----------------------------------|----------------------------------------|
A:-----------------------------------|----------------------------------------|
E:-----------------------------------|----------------------------------------|
Добавлено: 05.07.2013
Другие материалы по этой песне:
  • Аккорды и текст

Страница создана 05.07.2013
http://primanota.ru/enanitos-verdes/cada-vez-que-te-digo-adios-chords.htm
Привет, Гость.
Предлагаем пройти революционный курс по гитаре.
Подарок от PrimaNota.Ru, забирай!