PrimaNota.ru - самый крупный в мире бесплатный архив песенных текстов, аккордов, табулатур и нот


Enabler - Speechless - таба, видео

Регистрация Запомнить меня
Войти через:  Facebook Google Twitter Vk Yandex Mail.ru

Enabler - Speechless - таба, видео

Печатать
Просмотров: 76
http://www.facebook.com/enablermke

     b|---------------------------------------|
    F#|---------------------------------------|
GTR  D|--------------------------------10-/14-|
 1   A|-0-000000-7-0-10-7-0-000000-7-8--------| x3
     F|---------------------------------------|
     A|---------------------------------------|

     b|---------------------------------------|
    F#|---------------------------------------|
GTR  D|--------------------------------10-/14-|
 2   A|----------------------------7-8--------| x3
     F|---------------------------------------|
     A|---------------------------------------|

     b|----------------------------|
    F#|----------------------------|
GTR  D|----------------------------|
1+2  A|-------------6--6--6--6--6--|
     F|----------------------------|
     A|-2BDH-----------------------|

     b|-----------------------------------------|
    F#|-----------------------------------------|
GTR  D|-----------------------------------------| 
1+2  A|----------7-0-10-7------------7-7-7-7-10-| x7
     F|----------------------------8------------|
     A|-0-000000----------0-000000--------------|

     b|------------------------------|
    F#|------------------------------|
GTR  D|------------------------------|
1+2  A|-------------6--6--6--6--6--6-|
     F|------------------------------|
     A|-2BDH-------------------------|

     b|-----------------------------------------------------|
    F#|-----------------------------------------------------|
GTR  D|-----------------------------------------------------|
1+2  A|-0----------1--------3------6--0------1--------------| 1,3
     F|-0----------1--------3------6--0------1--------------|
     A|-0-00000000-1-000000-3-0000-6--0-0000-1-0000-3-2-3-5-|
          PMPMPMPM   PMPMPM   PMPM      PMPM   PMPM

     b|------------------------------------------------------------|
    F#|------------------------------------------------------------|
GTR  D|------------------------------------------------------------|
1+2  A|-0----------1--------3--------------------------------------| 2,4
     F|-0----------1--------3------444444444444444---------1-0-1-3-|
     A|-0-00000000-1-000000-3-0000-----------------3-2-3-5---------|
          PMPMPMPM   PMPMPM   PMPM

     b|---------------------------------------|
    F#|---------------------------------------|
GTR  D|--------------------------------10-/14-|
1+2  A|-0-000000-7-0-10-7-0-000000-7-8--------| x3
     F|---------------------------------------|
     A|---------------------------------------|

     b|----------------------------|
    F#|----------------------------|
GTR  D|----------------------------|
1+2  A|-------------6--6--6--6--6--|
     F|----------------------------|
     A|-2BDH-----------------------|

     b|-------------------------------------------------------|
    F#|-------------------------------------------------------|
GTR  D|-------------------------------------------------------|
 1   A|-------------------------------------------------------|
     F|-5--6-5--6-5--6-5----9-8--6-5--6-5-------6-5---6-5---6-|
     A|-------------------------------------------------------|

     b|-------------------------------------------------------|
    F#|-------------------------------------------------------|
GTR  D|-------------------------------------------------------|
 2   A|-------------------------------------------------------|
     F|-------------------------------------------------------|
     A|-00000000000000000000000000000000000000000000000000000-|
        PMPMPMPMPMPMPMPMPMPMPMPMPMPMPMPMPMPMPMPMPMPMPMPMPMPMPM

     b|---------------------------------|
    F#|---------------------------------|
GTR  D|---------------------------------|
1+2  A|---------------------------------| 
     F|-444444444444444---------1-0-1-3-|
     A|-----------------3-2-3-5---------|

     b|-------------------------------------------------------|
    F#|-------------------------------------------------------|
GTR  D|-7--8-7--8-7--8-7---11-10-8-7--8-7-------8-7---8-7---8-|
 1   A|-------------------------------------------------------|
     F|-------------------------------------------------------|
     A|-------------------------------------------------------|

     b|-------------------------------------------------------|
    F#|-------------------------------------------------------|
GTR  D|-------------------------------------------------------|
 2   A|-------------------------------------------------------|
     F|-------------------------------------------------------|
     A|-00000000000000000000000000000000000000000000000000000-|
        PMPMPMPMPMPMPMPMPMPMPMPMPMPMPMPMPMPMPMPMPMPMPMPMPMPMPM

     b|---------------------------------|
    F#|---------------------------------|
GTR  D|-666666666666666-----------------|
1+2  A|---------------------------------| 
     F|-------------------------1-0-1-3-|
     A|-----------------3-2-3-5---------|

     b|---------------------------------------|
    F#|---------------------------------------|
GTR  D|--------------------------------10-/14-|
1+2  A|-0-000000-7-0-10-7-0-000000-7-8--------| x3
     F|---------------------------------------|
     A|---------------------------------------|

     b|---------------------------------|
    F#|---------------------------------|
GTR  D|---------------------------------|
1+2  A|-2----------------6--6--6--6--6--|
     F|-2-------------------------------|
     A|-2-22222222222222----------------|
          PMPMPMPMPMPMPM

Repeat previous two bars

     b|-------------------------------------------------------------|
    F#|-------------------------------------------------------------|
GTR  D|-------------------------------10----------------------------|
1+2  A|-0--------------------------------12-------------------------| x2
     F|-0-0-0-0-0-0-0-0-0-0-0-0-0-0-0-------12----------4-4-4-4-4-5-|
     A|-0-0-0-0-0-0-0-0-0-0-0-0-0-0-0----------0-7--3-0-------------|
          P M P M P M P M P M P M P M

     b|-------------------------------------------------------------|
    F#|-------------------------------------------------------------|
GTR  D|-------------------------------10----------------------------|
 1   A|-0--------------------------------12-------------------------| x2
     F|-0-0-0-0-0-0-0-0-0-0-0-0-0-0-0-------12----------4-4-4-4-4-5-|
     A|-0-0-0-0-0-0-0-0-0-0-0-0-0-0-0----------0-7--3-0-------------|
          P M P M P M P M P M P M P M

     b|-----------------------------------------------------------------|
    F#|-----------------------------------------------------------------|
GTR  D|-141414141414141414141414141414-13131313131313131313131313131313-|
 2   A|-----------------------------------------------------------------| x2
     F|-121212121212121212121212121212-11111111111111111111111111111111-|
     A|-----------------------------------------------------------------|

     b|---------------------------------|
    F#|---------------------------------|
GTR  D|---------------------------------|
 1   A|-------------------------5-----5-|
     F|-0-0-0--0-0-0--0-0-0-5-6---5-6---|
     A|-0-0-0--0-0-0--0-0-0-------------|
        PMP M  PMP M  PMP M

     b|---------------------------------|
    F#|---------------------------------|
GTR  D|---------------------------------|
 2   A|-------------------------5-----5-|
     F|---------------------5-6---5-6---|
     A|---------------------------------|

     b|-----------------------------------------------------|
    F#|-----------------------------------------------------|
GTR  D|-----------------------------------------------------|
1+2  A|---------------------------------------------5-----5-|
     F|-0-0-0--0-0-0--0-0-0-5-0-0--0-0-0--0-0-0-5-6---5-6---|
     A|-0-0-0--0-0-0--0-0-0---0-0--0-0-0--0-0-0-------------|
        PMP M  PMP M  PMP M   P M  PMP M  PMP M

     b|------------------------|
    F#|------------------------|
GTR  D|-------14---------------|
1+2  A|----------15------------|
     F|-0-0-0-------17---1-----|
     A|-0-0-0----------0---0-1-|
        PMP M         

     b|---------------------------------|
    F#|---------------------------------|
GTR  D|---------------------------------|
1+2  A|-------------------------5-----5-|
     F|-0-0-0--0-0-0--0-0-0-5-6---5-6---|
     A|-0-0-0--0-0-0--0-0-0-------------|
        PMP M  PMP M  PMP M       

     b|-----------------------------------------------------|
    F#|-----------------------------------------------------|
GTR  D|-----------------------------------------------------|
1+2  A|---------------------------------------------5-----5-|
     F|-0-0-0--0-0-0--0-0-0-5-0-0--0-0-0--0-0-0-5-6---5-6---|
     A|-0-0-0--0-0-0--0-0-0---0-0--0-0-0--0-0-0-------------|
        PMP M  PMP M  PMP M   P M  PMP M  PMP M

     b|------------------------|
    F#|------------------------|
GTR  D|-------14---------------|
1+2  A|----------15------------|
     F|-0-0-0-------17---1-----|
     A|-0-0-0----------0---0-1-|
        PMP M         

     b|---------------------------------|
    F#|---------------------------------|
GTR  D|---------------------------------|
 1   A|-------------------------5-----5-|
     F|-0-0-0--0-0-0--0-0-0-5-6---5-6---|
     A|-0-0-0--0-0-0--0-0-0-------------|
        PMP M  PMP M  PMP M     

     b|-------------------------------|
    F#|-------------------------------|
GTR  D|-7-7-7-7-7-7-7-7-7-7-7-7-7-7-7-|
 2   A|-------------------------------|
     F|-5-5-5-5-5-5-5-5-5-5-5-5-5-5-5-|
     A|-------------------------------|

     b|-------------------------------------------------------------|
    F#|-------------------------------------------------------------|
GTR  D|-------------------------------------------------------------|
 1   A|-----------------------------------------------------5-----5-|
     F|-0-0-0--0-0-0--0-0-0--0-0-0--5-0-0--0-0-0--0-0-0-5-6---5-6---|
     A|-0-0-0--0-0-0--0-0-0--0-0-0----0-0--0-0-0--0-0-0-------------|
        PMP M  PMP M  PMP M   P M  PMP M  PMP M

     b|-------------------------------------------------------|
    F#|-------------------------------------------------------|
GTR  D|-7-7-7-7-7-7-7-7-7-7-7-7-7-7-7-7-7-7-7-7-7-7-7-7-7-7-7-|
 2   A|-------------------------------------------------------|
     F|-5-5-5-5-5-5-5-5-5-5-5-5-5-5-5-5-5-5-5-5-5-5-5-5-5-5-5-|
     A|-------------------------------------------------------|

     b|------------------------|
    F#|------------------------|
GTR  D|-------14---------------|
 1   A|----------15------------|
     F|-0-0-0-------17---1-----|
     A|-0-0-0----------0---0-1-|
        PMP M         

     b|-------------------|
    F#|-------------------|
GTR  D|-7-7-7-7-7-7-7-7-7-|
 2   A|-------------------|
     F|-5-5-5-5-5-5-5-5-5-|
     A|-------------------|

     b|---------------------------------|
    F#|---------------------------------|
GTR  D|---------------------------------|
 1   A|-------------------------5-----5-|
     F|-0-0-0--0-0-0--0-0-0-5-6---5-6---|
     A|-0-0-0--0-0-0--0-0-0-------------|
        PMP M  PMP M  PMP M     

     b|-------------------------------|
    F#|-------------------------------|
GTR  D|-7-7-7-7-7-7-7-7-7-7-7-7-7-7-7-|
 2   A|-------------------------------|
     F|-5-5-5-5-5-5-5-5-5-5-5-5-5-5-5-|
     A|-------------------------------|

     b|-------------|
    F#|-------------|
GTR  D|-----------5-|
1+2  A|-4-5-7-8-7---|
     F|-------------|
     A|-------------|
      
     b|---------------------------------------|
    F#|---------------------------------------|
GTR  D|--------------------------------10-/14-|
 1   A|-0-000000-7-0-10-7-0-000000-7-8--------| 
     F|---------------------------------------|
     A|---------------------------------------|

     b|---------------------------------------|
    F#|---------------------------------------|
GTR  D|--------------------------------10-/14-|
 2   A|----------------------------7-8--------| 
     F|---------------------------------------|
     A|---------------------------------------|

     b|----------------------------|
    F#|----------------------------|
GTR  D|----------------------------|
1+2  A|-------------6--6--6--6--6--|
     F|----------------------------|
     A|-2BDH-----------------------|


     b|-----------------------------------------------------------------|
    F#|-----------------------------------------------------------------|
GTR  D|-----------------------------------------------------------------|
 1   A|-7-000000-7-00-10-7-8-000000-7-00-10-7---------------------------| 1,3
     F|---------------------------------------88888888-1010101010101010-|
     A|-----------------------------------------------------------------|
          PMPMPM   PM        PMPMPM   PM      PMPMPMPM PMPMPMPMPMPMPMPM

     b|-----------------------------------------------------------------|
    F#|-----------------------------------------------------------------|
GTR  D|-----------------------------------------------------------------|
 1   A|-7-000000-7-00-10-7-8-000000-7-00-10-7----------6--6--6--6--6--6-| 2,4
     F|---------------------------------------88888888------------------|
     A|-----------------------------------------------------------------|
          PMPMPM   PM        PMPMPM   PM      PMPMPMPM 

Can't work out the solo. Sorry :(

     b|---------------------------------------|
    F#|---------------------------------------|
GTR  D|--------------------------------10-/14-|
1+2  A|-0-000000-7-0-10-7-0-000000-7-8--------| 
     F|---------------------------------------|
     A|---------------------------------------|
Добавлено: 08.11.2013
Другие материалы по этой песне:

Страница создана 12.08.2013
http://primanota.ru/enabler/speechless-chords.htm
Привет, Гость.
Предлагаем пройти революционный курс по гитаре.
Подарок от PrimaNota.Ru, забирай!