PrimaNota.ru - самый крупный в мире бесплатный архив песенных текстов, аккордов, табулатур и нот


Ena Pa 2000 - Cancao De Embalar - таба, видео

Регистрация Запомнить меня
Войти через:  Facebook Google Twitter Vk Yandex Mail.ru

Ena Pa 2000 - Cancao De Embalar - таба, видео

Печатать
Просмотров: 106
Album: 2001 Odisseia no Chaco


Intro/Chorus: 4x D A E A
These are the fingering details:
     *   D              A              E
e||-----0--2-----|--------------|--------------|
B||--3--------3--|--2-----2-----|--0-----0-----|
G||--2-----------|--2-----2-----|--1-----1-----|
D||--0-----------|--2--2-----2--|--2--2-----2--|
A||--------------|--0-----------|--------------|
E||--------------|--------------|--0-----------|
     *Play all D's in arpeggio
    (plucking a string at a time)

      A              D              A              E
--------------|-----0--2-----|--------------|--------------|
--2-----2-----|--3--------3--|--2-----2-----|--0-----0-----|
--2-----2-----|--2-----------|--2-----2-----|--1-----1-----|
--2--2-----2--|--0-----------|--2--2-----2--|--2--2-----2--|
--0-----------|--------------|--0-----------|--------------|
--------------|--------------|--------------|--0-----------|

     A             D              A              E
------------|-----0--2-----|--------------|--------------|
-------2----|--3--------3--|--2-----2-----|--0-----0-----|
-------2----|--2-----------|--2-----2-----|--1-----1-----|
-------2----|--0-----------|--2--2-----2--|--2--2-----2--|
--0---------|--------------|--0-----------|--------------|
------------|--------------|--------------|--0-----------|

      A              D              A              E
--------------|-----0--2-----|--------------|--------------|
--2-----2-----|--3--------3--|--2-----2-----|--0-----0-----|
--2-----2-----|--2-----------|--2-----2-----|--1-----1-----|
--2--2-----2--|--0-----------|--2--2-----2--|--2--2-----2--|
--0-----------|--------------|--0-----------|--------------|
--------------|--------------|--------------|--0-----------|


      A
--------------|
--------2-----|
--------2-----|
-----2-----2--|  At the end of the intro the A
--0-----------| continues for three measures:
--------------|

      A              A              A
--------------|--------------|--------------|
--2-----2-----|--------2-----|--2-----2-----|
--2-----2-----|--------2-----|--2-----2-----|
-----2-----2--|-----2-----2--|-----2-----2--|
--------------|--0-----------|--------------|
--------------|--------------|--------------|

Verse: A E A A
       D D A A
       D E A A
       D A E A

  Lam---be,....
      A              E              A
--------------|--------------|--------------|
--------2-----|--------0-----|--------2-----|
--------2-----|--------1-----|--------2-----|
-----2-----2--|-----2-----2--|-----2-----2--|
--0-----------|--------------|--0-----------|
--------------|--0-----------|--------------|

                   A------  pi----linha do pai--
      A               D              D
--------0-------|--------2-----|--2-----2-----|
------2---------|--------3-----|--3-----3-----|
----2-----------|-----2-----2--|-----2-----2--|
----------------|--0-----------|--------------|
--0-------------|--------------|--------------|
----------------|--------------|--------------|

--zi-----------nho      Se   ....
      A             A            D              A
--------------|-----------|--------2-----|--------------|
--------2-----|--2--------|--------3-----|--------0-----|
--------2-----|--2--------|-----2-----2--|--------1-----|
-----2-----2--|-----------|--0-----------|-----2-----2--|
--0-----------|-----------|--------------|--------------|
--------------|-----------|--------------|--0-----------|

--di-----------nho           le---vas um  so---co
      A             A            D           A
--------------|-----------|-------2----|------------|
--------2-----|--2--------|-------3----|-------2----|
--------2-----|--2--------|-------2----|-------2----|
-----2-----2--|-----------|--0---------|-------2----|
--0-----------|-----------|------------|--0---------|
--------------|-----------|------------|------------|

  no   fo------ci--nho
      E             A
------------|-------------|
-------0----|-------2-----|
-------1----|-------2-----|
-------2----|-------2-----|
------------|--0----------|
--0---------|-------------|

Repeat the intro/chorus after each verse. In the end of
the last chorus the A is played like this:

       E             A               A         *A
--------------|--------------|--0-----------|--5--------||
--0-----0-----|-----------2--|-----2-----2--|--2--------||
--1-----1-----|--------2-----|--------2-----|--2--------||
--2--2-----2--|-----2--------|--------------|--2--------||
--------------|--0-----------|--------------|--0--------||
--0-----------|--------------|--------------|-----------||
                                             *arpeggio
Добавлено: 18.06.2012
Другие материалы по этой песне:
  • Аккорды и текст

Страница создана 18.06.2012
http://primanota.ru/ena-pa-2000/cancao-de-embalar-chords.htm
Привет, Гость.
Предлагаем пройти революционный курс по гитаре.
Подарок от PrimaNota.Ru, забирай!