PrimaNota.ru - самый крупный в мире бесплатный архив песенных текстов, аккордов, табулатур и нот


En Espiritu Y En Verdad - En Tu Luz - таба, видео

Регистрация Запомнить меня
Войти через:  Facebook Google Twitter Vk Yandex Mail.ru

En Espiritu Y En Verdad - En Tu Luz - таба, видео

Печатать
Просмотров: 97
E|---------------------------------------|
A|---------------------------------------|
D|---------------------------------------|
G|-9-9-9---------------------------------|
B|-------12-12-12-10-10-10-9-9-9-9/10/9--|
e|---------------------------------------|

E|---------------------------------------|
A|---------------------------------------|
D|---------------------------------------|
G|-9-9-9---------------------------------|
B|-------12-12-12-10-10-10-9-9-9-9/10/9--|
e|---------------------------------------|

E|---------------------------------------|
A|---------------------------------------|
D|---------------------------------------|
G|-9-9-9---------------------------------|
B|-------12-12-12-10-10-10-9-9-9-9/10/9--|
e|---------------------------------------|

E|---------------------------------------|
A|---------------------------------------|
D|---------------------------------------|
G|-9-------9-9-9------8-8-8-8/E----------|
B|---7-7-7-------9-9-9-------------------|
e|---------------------------------------|

VERSOS

E
Tan consumidos por tu amor
que hemos perdido el sentido de
   C#m                A
nuestro alrededooor
E
ya nada nos puede deslumbrar
nada en este mundo
       C#m            A
se te pude comparar

  Bdis     Adis
Nadie como tu (repite 4)
 E
Jesus

CORO
  E                 B
Eres nuestra herencia
                 A
mas que suficiente
               C#m
nuestro redentor
    B      E
y Rey Jesus
  E               B
muestra tus caminos
                    A
y andaremos en tu luz
                   C#m    B
a la luz de tu verdad

INTRO


C#mdis               Bdis
En tu luz vemos la luz
                     Adis
En tu luz vemos la luz
                     C#mdis Bdis
En tu luz vemos la luz

CORO
  E                 B
Eres nuestra herencia
                 A
mas que suficiente
               C#m
nuestro redentor
    B      E
y Rey Jesus
  E               B
muestra tus caminos
                    A
y andaremos en tu luz
                   C#m    B
a la luz de tu verdad

FINAL

E|---------------------------------------|
A|---------------------------------------|
D|---------------------------------------|
G|-9-9-9---------------------------------|
B|-------12-12-12-10-10-10-9-9-9-9/10/9--|
e|---------------------------------------|

E|---------------------------------------|
A|---------------------------------------|
D|---------------------------------------|
G|-9-9-9---------------------------------|
B|-------12-12-12-10-10-10-9-9-9-9/10/9--|
e|---------------------------------------|

E|---------------------------------------|
A|---------------------------------------|
D|---------------------------------------|
G|-9-9-9---------------------------------|
B|-------12-12-12-10-10-10-9-9-9-9/10/9--|
e|---------------------------------------|

 Fsus  Esus  Esus1  Bsus  Esus

la secuencia de acordes al final no es muy complicada
y la posición de los dedos es la siguiente:

  Fsus          Esus         Esus1        Bsus
E|--9----     E|--7----    E|--7----    E|--7----|
A|--9----     A|--7----    A|--7----    A|--7----|
D|--11---     D|--9----    D|--7----    D|--9----|
G|--11---     G|--9----    G|--9----    G|--8----|
B|--9----     B|--7----    B|--9----    B|--7----|
e|--9----     e|--7----    e|--7----    e|--7----|

se hacen los cambios al ritmo de la canción
ya saben como.

weno les dejos los acordes que aun me faltan


  C#mdis         Adis         Bdis
E|-------     E|-------    E|-------|
A|--4----     A|--7----    A|--9----|
D|--6----     D|--7----    D|--9----|
G|--6----     G|--6----    G|--8----|
B|-------     B|-------    B|-------|
e|-------     e|-------    e|-------|
Добавлено: 11.05.2012
Другие материалы по этой песне:

Страница создана 11.05.2012
http://primanota.ru/en-espiritu-y-en-verdad/en-tu-luz-chords.htm
Привет, Гость.
Предлагаем пройти революционный курс по гитаре.
Подарок от PrimaNota.Ru, забирай!