PrimaNota.ru - самый крупный в мире бесплатный архив песенных текстов, аккордов, табулатур и нот


Empyrium - The Shepherd And The Maiden Ghost - текст песни, таба, видео

Регистрация Запомнить меня
Войти через:  Facebook Google Twitter Vk Yandex Mail.ru

Empyrium - The Shepherd And The Maiden Ghost - текст песни, таба, видео

Печатать
Просмотров: 38
Empyrium - The shepherd and the maiden ghost
----------------------------------------------

Album: Where at Night the Wood Grouse plays


1. Intro, Strophe 1&2

 |Gitarre 1
E|-------------------------------|-----------------------------|
H|-------------------------------|-----------------------------|
G|------9----9---------9----9----|-----7---7---10------10-9----|
D|---10---10---10---10---10---10-|---9---9---9----12--------10-|
A|-0--------------0--------------|-0-----------------0---------|
E|-------------------------------|-----------------------------|
 |
 |Gitarre 2
E|-------------------------|-------------------------|
H|-------------------------|-------------------------|
G|-----5---5-------5-------|-----5---5-------5---5---|
D|---2---2---2---2---2-0-2-|---3---3---3---3---3---3-|
A|-0-----------0-----------|-0-----------0-----------|
E|-------------------------|-------------------------|


 |Gitarre 1
E|-------------------------------|-------------------------|
H|-------------------------------|-------------------------|
G|------9----9---------9----9----|-----4---4-------4---4---|
D|---10---10---10---10---10---10-|---7---7---7---5---5---5-|
A|-0--------------0--------------|-------------------------|
E|-------------------------------|-0-----------0-----------|
 |
 |Gitarre 2
E|-------------------------|----------------------------|
H|-------------------------|----------------------------|
G|-----5---5-------5---5---|-----4---4--------9----9----|
D|---2---2---2---2---2---2-|---5---5---5---10---10---10-|
A|-0-----------0-----------|----------------------------|
E|-------------------------|-0-----------0--------------|


2. "Verschnaufpause"

 |Gitarre 1
E|-------------------------|-------------------------|
H|-------------------------|-------------------------|
G|-----4---5-------5---4---|-----4---5---7---5---4---|
D|---2---2---2---2---2---2-|---5---5---5---5---5---5-|
A|-0-----------3-----------|-------------------------|
E|-------------------------|-0-----------------------|
 |
 |Gitarre 2
E|-------------------------|-------------------------|
H|-------------------------|-------------------------|
G|-----4---5-------5---4---|-----4---5---7---5---4---|
D|---2---2---2---2---2---2-|---5---5---5---5---5---5-|
A|-0-----------3-----------|-------------------------|
E|-------------------------|-0-----------------------|


Outro
 |Gitarre 1
E|-------------------------------|
H|-------------------------------|
G|------9----9---------9----9----|
D|---10---10---10---10---10---10-|
A|-0--------------0--------------|
E|-------------------------------|
 |
 |Gitarre 2
E|-------------------------|
H|-------------------------|
G|-----5---5-------5---5---|
D|---2---2---2---2---2---2-|
A|-0-----------0-----------|
E|-------------------------|


Die "Solo-"Gitarren während der ersten Pause:

 |Gitarre 3
E|-------------------------------|-------------------------------|
H|---15---13---12---12-13-12--12-|-------10--12--13--12--10--12--|
G|--16---------------------------|----9--------------------------|
D|-17----------------------------|---9---------------------------|
A|-------------------------------|-10----------------------------|
E|-------------------------------|-------------------------------|


 |Gitarre 3
E|-------------------------------|-------------------------------|
H|-------------------------------|-------------------------------|
G|-7--9--10--9--7-----9----------|----9--6--7--6--6--------------|
D|-------------------------------|-7----------------7--9---------|
A|-------------------------------|-------------------------------|
E|-------------------------------|-------------------------------|


Die "Solo-"Gitarren am Ende:


 |Gitarre 3
E|-------------------------------|---------------------------------|
H|-------10--12--13--12--10--12--|----15---13---12---12-13-12---12-|
G|----9--------------------------|--16-----------------------------|
D|---9---------------------------|-17------------------------------|
A|-10----------------------------|---------------------------------|
E|-------------------------------|---------------------------------|


 |Gitarre 3
E|-----------------------------------|-------------|-----|
H|-----------------------------------|-------------|-----|
G|-7--9--10--9--7-----9--------------|-------------|-----|
D|----------------------------------5|-7-5-7-5-7-5-|-7---|
A|-----------------------------------|-------------|-----|
E|-----------------------------------|-------------|-----|


 |Gitarre 3
E|----|-------------|------------------|----------------|
H|----|-------------|------------------|----0---0-------|
G|----|-------------|------------------|------5---------|
D|--5-|-7-5-7-5-7-5-|-7----------------|--5-------7-5-7-|
A|----|-------------|------------------|----------------|
E|----|-------------|------------------|----------------|


 |Gitarre 3
E|----|---------------|------------------|---------------|----|
H|----|---------------|------------------|---------------|----|
G|--9-|-9-7-7---------|----------------9-|-9-7-7---------|----|
D|----|-------10-10-9-|------------------|-------10-10-9-|----|
A|----|---------------|-7----------------|---------------|-7--|
E|----|---------------|------------------|---------------|----|
Добавлено: 24.12.2015
Другие материалы по этой песне:

Страница создана 03.05.2012
http://primanota.ru/empyrium/the-shepherd-and-the-maiden-ghost-chords.htm
Привет, Гость.
Предлагаем пройти революционный курс по гитаре.
Подарок от PrimaNota.Ru, забирай!