PrimaNota.ru - самый крупный в мире бесплатный архив песенных текстов, аккордов, табулатур и нот


Empyrium - Ode To Melancholy - аккорды и текст, таба, видео

Регистрация Запомнить меня
Войти через:  Facebook Google Twitter Vk Yandex Mail.ru

Empyrium - Ode To Melancholy - аккорды и текст, таба, видео

Печатать
Просмотров: 170
Ode To Melancholy
Empyrium
Tunning E B G D A E
 
Piano Intro

Then
GtR 1
|-------------------------------------------------------------------|
|-------------------------------------------------------------------|
|-7--------7--------------------------------------------------------|
|-7--------7--------7----------------5------------------------------|
|-5--------5--------7----------------5------------------------------|
|-------------------5----------------3------------------------------|
GtR 2
|-------------------------------------------------------------------|
|-------------------------------------------------------------------|
|-------------------------------------------------------------------|
|---5h7------5h7-----10-9-7-9-9h10-9-79-9--------------------------|
|-------------------------------------------------------------------|
|-------------------------------------------------------------------|
SYNTB
|-------------------------------------------------------------------|
|-------------------------------------------------------------------|
|---1214----1214--17---------------1416--------------------------|
|-------------------------------------------------------------------|
|---1012----1012--15---------------1214--------------------------|
|-------------------------------------------------------------------|


GtR 1
|-------------------------------------------------------------------|
|-------------------------------------------------------------------|
|-7--------7--------------------------------------------------------|
|-7--------7--------7------------------5----------------------------|
|-5--------5--------7------------------5----------------------------|
|-------------------5------------------3----------------------------|
GtR 2
|-------------------------------------------------------------------|
|-------------------------------------------------------------------|
|-----------------7-9---------10-9-7-9-7----------------------------|
|---5h7------5h7----------------------------9-----------------------|
|-------------------------------------------------------------------|
|-------------------------------------------------------------------|
SYNTB
|-------------------------------------------------------------------|
|-------------------------------------------------------------------|
|---1214----1214--17-----------------1416------------------------|
|-------------------------------------------------------------------|
|---1012----1012--15-----------------1214------------------------|
|-------------------------------------------------------------------|


GtR 1
|-------------------------------------------------------------------|
|-------------------------------------------------------------------|
|-7--------7--------------------------------------------------------|
|-7--------7--------7------7--7--7-----5----------------------------|
|-5--------5--------7--.-.-7--7--7-----5----------------------------|
|-------------------5--5-5-5--5--5-----3----------------------------|
GtR 2
|-------------------------------------------------------------------|
|-------------------------------------------------------------------|
|-------------------------------------------------------------------|
|---5h7------------------------------------9------------------------|
|------------7h8----------------------------------------------------|
|-------------------------------------------------------------------|
SYNTB
|-------------------------------------------------------------------|
|-------------------------------------------------------------------|
|---1214----1214--17---------------16-----------------------------|
|-------------------------------------------------------------------|
|---1012----1012--15---------------14-----------------------------|
|-------------------------------------------------------------------|


GtR 1
|-------------------------------------------------------------------|
|-------------------------------------------------------------------|
|-7--------7--------------------------------------------------------|
|-7--------7--------7------------------5----------------------------|
|-5--------5--------7------------------5----------------------------|
|-------------------5------------------3----------------------------|
GtR 2
|-------------------------------------------------------------------|
|-------------------------------------------------------------------|
|-------------------------------------------------------------------|
|---5h7------------------------------------9------------------------|
|------------7h8----------------------------------------------------|
|-------------------------------------------------------------------|
SYNTB
|-------------------------------------------------------------------|
|-------------------------------------------------------------------|
|---1214----1214--17---------------16-----------------------------|
|-------------------------------------------------------------------|
|---1012----1012--15---------------14-----------------------------|
|-------------------------------------------------------------------|


Piano and drums


GtR 1
|-------------------------------------------------------------------|
|-------------------------------------------------------------------|
|-7-----------7-----------------------------------------------------|
|-7-----------7-------------7---------------5-----------------------|
|-5-----------5-------------7---------------5-----------------------|
|---------------------------5---------------3-----------------------|
GtR 2
|-------------------------------------------------------------------|
|-------------------------------------------------------------------|
|------------------10-9-10--9------10-9-7-9-7-----------------------|
|---5h7--------5h7-------------------------------9------------------|
|-------------------------------------------------------------------|
|-------------------------------------------------------------------|
SYNTB
|-------------------------------------------------------------------|
|-------------------------------------------------------------------|
|---1214-----1214--17---------------16----------------------------|
|-------------------------------------------------------------------|
|---1012-----1012--15---------------14----------------------------|
|-------------------------------------------------------------------|


GtR 1
|-------------------------------------------------------------------|
|-------------------------------------------------------------------|
|-7-----------7-----------------------------------------------------|
|-7-----------7----------------7------------5-----------------------|
|-5-----------5----------------7------------5-----------------------|
|------------------------------5------------3-----------------------|
GtR 2
|-------------------------------------------------------------------|
|-------------------------------------------------------------------|
|------------------10-9-10--10-9---10-9-7-9-7-----------------------|
|---5h7--------5h7--------------------------------------------------|
|-------------------------------------------------------------------|
|-------------------------------------------------------------------|
SYNTB
|-------------------------------------------------------------------|
|-------------------------------------------------------------------|
|---1214-----1214--17------------------16-------------------------|
|-------------------------------------------------------------------|
|---1012-----1012--15------------------14-------------------------|
|-------------------------------------------------------------------|


GtR 1
|-------------------------------------------------------------------|
|-------------------------------------------------------------------|
|-7-----------7-----------------------------------------------------|
|-7-----------7----------------7---7-----5--5-----------------------|
|-5-----------5----------------7---7-----5--5-----------------------|
|------------------------------5---5-----3--3-----------------------|
GtR 2
|-------------------------------------------------------------------|
|-------------------------------------------------------------------|
|-------------------------------------------------------------------|
|-------------------------------------------------------------------|
|---10h12------10h12------------------------------------------------|
|-------------------------------------------------------------------|
SYNTB
|-------------------------------------------------------------------|
|-------------------------------------------------------------------|
|---1214-----1214--17------------------16-------------------------|
|-------------------------------------------------------------------|
|---1012-----1012--15------------------14-------------------------|
|-------------------------------------------------------------------|

GtR 1
|-------------------------------------------------------------------|
|-------------------------------------------------------------------|
|-7-----------7-----------------------------------------------------|
|-7-----------7----------------7---7-----5--5-----------------------|
|-5-----------5----------------7---7-----5--5-----------------------|
|------------------------------5---5-----3--3-----------------------|
GtR 2
|-------------------------------------------------------------------|
|-------------------------------------------------------------------|
|-------------------------------------------------------------------|
|---------------------------------------------9---12~---------------|
|---10h12------10h12------------------------------------------------|
|-------------------------------------------------------------------|
SYNTB
|-------------------------------------------------------------------|
|-------------------------------------------------------------------|
|---1214-----1214--17------------------16-------------------------|
|-------------------------------------------------------------------|
|---1012-----1012--15------------------14-------------------------|
|-------------------------------------------------------------------|


Acoustic Guitar: (4 times)
|-0h1----------1-----0h1--------------------------------------------|
|----3-------3---3------3-------3----3------------------------------|
|------2---2-------2------2---2----2--------------------------------|
|-0------0-----------0-----------------0----------------------------|
|---------------------------0-----4---------------------------------|
|-------------------------------------------------------------------|
Violin:
|-------------------------------------------------------------------|
|-------------------------------------------------------------------|
|-------------------------------------------------------------------|
|-------------------------------------------------------------------|
|-8-----7------------5----------------------------------------------|
|-------------------------------------------------------------------|


Synth and Drums

Synth (8 times)
|-------------------------------------------------------------------|
|-------------------------------------------------------------------|
|-10-9-9-9-9-10-9-9-7-7-9-------------------------------------------|
|-------------------------------------------------------------------|
|-8--7-7-7-7-8--7-7-5-5-7-------------------------------------------|
|-------------------------------------------------------------------|

5th time guitars enter
GtR 1 (4 times)
|-------------------------------------------------------------------|
|-------------------------------------------------------------------|
|-7--7-----3-3-3-7-7-----2-----6------------------------------------|
|-7--7-.-.-3-3-3-7-7-.-.-2-.-.-6------------------------------------|
|-5--5-5-5-1-1-1-5-5-5-5-0-0-0-4------------------------------------|
|-------------------------------------------------------------------|
GtR 2(4 times)
|-------------------------------------------------------------------|
|-----------------------ah------------------------------------------|
|------------------------4------------------------------------------|
|-------------------------------------------------------------------|
|-------------------------------------------------------------------|
|-------------------------------------------------------------------|

Synth with drums continues another 2 times then...

GtR 1 (4 times, the first two with GtR 2, and another two alone)
|-------------------------------------------------------------------|
|-------------------------------------------------------------------|
|-5-----------------3-----------------------------------------------|
|-5-----------------3--------------5---------------3----------------|
|-3-----------------1--------------5---------------3----------------|
|----------------------------------3---------------1----------------|
GtR 2 (2 times)
|------------------------------------------------------------------------|
|----------------------------------------------------10-10-11-11-11-10-10|
|-8--8--10-10-1012-7--7-h8-p7--7----------------------------------------|
|----------------------------------8-8-10-10-1012-7---------------------|
|------------------------------------------------------------------------|
|------------------------------------------------------------------------|

GtR 1 (2 times, hard to hear)
|-------------------------------------------------------------------|
|-------------------------------------------------------------------|
|-------------------------------------------------------------------|
|---------------------------------------------------7-8-8-8-7-7-----|
|8-6-6-6-6h8-8-6-6-5h6p510-8-8h10p8--------------------------------|
|-----------------------------------6-6-66-8-810-5-----------------|
GtR 2 (2 times)
|--------------------------------------------------------------------------|
|------------------------------------------------------10-10-11-11-11-10-10|
|8----8-810-10-1012-7-7h8p7-7h8-p7p--------------------------------------|
|------------------------------------8-8-10-10-1012-7---------------------|
|--------------------------------------------------------------------------|
|--------------------------------------------------------------------------|


GtR 1 (4 times)
|--------------------------------------------------------------------|
|--------------------------------------------------------------------|
|-7--7-----3-3-3-7-7-----2-----6-------------------------------------|
|-7--7-.-.-3-3-3-7-7-.-.-2-.-.-6-------------------------------------|
|-5--5-5-5-1-1-1-5-5-5-5-0-0-0-4-------------------------------------|
|--------------------------------------------------------------------|
GtR 2(4 times)
|-------------------------------------------------------------------|
|------------------------ah-----------------------------------------|
|------------------------4------------------------------------------|
|-------------------------------------------------------------------|
|-------------------------------------------------------------------|
|-------------------------------------------------------------------|
SYNTB (4 times)
|-----------------------|---------------------|---------------------|
|-----------------------|---------------------|---------------------|
|-10-9-9-9-9-10-9-9-7-7-|-9-------------------|-14--18-19-----------|
|-----------------------|---------------------|---------------------|
|-8--7-7-7-7-8--7-7-5-5-|-7-------------------|-12--16-17-----------|
|-----------------------|for the first 3 times|-4th time------------|

GtR 1 (6 times)
|-------------------------------------------------------------------|
|-------------------------------------------------------------------|
|-7--------7--------------------------------------------------------|
|-7--------7--------7------------------5----------------------------|
|-5--------5--------7------------------5----------------------------|
|-------------------5------------------3----------------------------|
SYNTB (6 times)
|-------------------------------------------------------------------|
|-------------------------------------------------------------------|
|-1214----1214----17-----------------16---------------------------|
|-------------------------------------------------------------------|
|-1012----1012----15-----------------14---------------------------|
|-------------------------------------------------------------------|


Song end:
|-------------------------------------------------------------------|
|-------------------------------------------------------------------|
|--7----------------------------------------------------------------|
|--7----------------------------------------------------------------|
|--5----------------------------------------------------------------|
|-------------------------------------------------------------------|

Any corrections welcomed...

Visit MetalTabs.com for more metal tablatur
Добавлено: 26.10.2013
Другие материалы по этой песне:
  • Аккорды и текст

Страница создана 11.05.2012
http://primanota.ru/empyrium/ode-to-melancholy-chords.htm
Привет, Гость.
Предлагаем пройти революционный курс по гитаре.
Подарок от PrimaNota.Ru, забирай!