PrimaNota.ru - самый крупный в мире бесплатный архив песенных текстов, аккордов, табулатур и нот


The Empty Wood - Ridgeline - таба, видео

Регистрация Запомнить меня
Войти через:  Facebook Google Twitter Vk Yandex Mail.ru

The Empty Wood - Ridgeline - таба, видео

Печатать
Просмотров: 46
Уроки эстрадного вокала в Санкт-Петербурге
-------------------------------------------------------------------------------
                             ridgeline - the empty wood
-------------------------------------------------------------------------------
Tabbed by: Simon M


Tuning: open dmaj7. Tune high e to a C#

Intro:

C#|-------------------------------------------------0---------------------0-----------------------|
 A|----------0----------0---------0-----------0-----------0----------0----------0-----------0-----|
F#|-----0---------0---------0-----------0---------------------0---------------------0-------------|
 D|--------0---------0---------0-----------0-----------0----------0----------0-----------0--------|
 A|------------0---------------------0----------------------0----------------------0--------------|
 D|---0-------------------0----------------------0---------------------0--------------------------|

Verse:

C#|----------------------------------------------0-----------------------------------------------------|
 A|------------0-----------0-----------0---------------------0-----------0-----------0-----------0-----|
F#|------0-----------0-----------0----------0----------0-----------0-----------0-----------0-----------|
 D|---------0-----------0-----------0----------0----------0-----------0-----------0-----------0--------|
 A|---2-----------0-----------4---------------------2-----------0-----------4--------------------------|
 D|--------------------------------------4----------------------------------------------4--------------|

C#|----------------------------------------------0-----------------------------------------------------|
 A|------------0-----------0-----------0---------------------0-----------0-----------0-----------0-----|
F#|------0-----------0-----------0----------0----------0-----------0-----------0-----------0-----------|
 D|---------0-----------0-----------0----------0----------0-----------0-----------0-----------0--------|
 A|---2-----------0-----------4---------------------2-----------0-----------4--------------------------|
 D|--------------------------------------4----------------------------------------------4--------------|

Pre-Chorus:

C#|------------------------------------------------------|
 A|-------------5-----------5-----------5-----------5----|
F#|-------0-----------0-----------0-----------0----------|
 D|----------0-----------0-----------0-----------0-------|
 A|----5-----------5-----------5-----------5-------------|
 D|------------------------------------------------------|

Chorus:

C#|-----------------------------------------------------------------------------------0--------------|
 A|------------5-----------5------------7-----------5----------4-----------4---------------------4---|
F#|------0-----------0------------0-----------0----------0-----------0----------0----------0---------|
 D|---------0-----------0------------0-----------0----------0-----------0----------0----------0------|
 A|---5-----------5-----------5/7----------5-----------4----------4----------4----------4------------|
 D|--------------------------------------------------------------------------------------------------|

C#|--------------------------------------------------------------------------------------------------|
 A|------------5-----------5------------7-----------5----------4-----------4----------4----------4---|
F#|------0-----------0------------0-----------0----------0-----------0----------0----------0---------|
 D|---------0-----------0------------0-----------0----------0-----------0----------0----------0------|
 A|---5-----------5-----------5/7----------5-----------4----------4----------4----------4------------|
 D|--------------------------------------------------------------------------------------------------|

Verse:

C#|----------------------------------------------0-----------------------------------------------------|
 A|------------0-----------0-----------0---------------------0-----------0-----------0-----------0-----|
F#|------0-----------0-----------0----------0----------0-----------0-----------0-----------0-----------|
 D|---------0-----------0-----------0----------0----------0-----------0-----------0-----------0--------|
 A|---2-----------0-----------4---------------------2-----------0-----------4--------------------------|
 D|--------------------------------------4----------------------------------------------4--------------|

C#|----------------------------------------------0-----------------------------------------------------|
 A|------------0-----------0-----------0---------------------0-----------0-----------0-----------0-----|
F#|------0-----------0-----------0----------0----------0-----------0-----------0-----------0-----------|
 D|---------0-----------0-----------0----------0----------0-----------0-----------0-----------0--------|
 A|---2-----------0-----------4---------------------2-----------0-----------4--------------------------|
 D|--------------------------------------4----------------------------------------------4--------------|

Pre-Chorus:

C#|------------------------------------------------------|
 A|-------------5-----------5-----------5-----------5----|
F#|-------0-----------0-----------0-----------0----------|
 D|----------0-----------0-----------0-----------0-------|
 A|----5-----------5-----------5-----------5-------------|
 D|------------------------------------------------------|

Chorus:

C#|--------------------------------------------------------------------------------------------------|
 A|------------5-----------5------------7-----------5----------4-----------4----------4----------4---|
F#|------0-----------0------------0-----------0----------0-----------0----------0----------0---------|
 D|---------0-----------0------------0-----------0----------0-----------0----------0----------0------|
 A|---5-----------5-----------5/7----------5-----------4----------4----------4----------4------------|
 D|--------------------------------------------------------------------------------------------------|

C#|--------------------------------------------------------------------------------------------------|
 A|------------5-----------5------------7-----------5----------4-----------4----------4----------4---|
F#|------0-----------0------------0-----------0----------0-----------0----------0----------0---------|
 D|---------0-----------0------------0-----------0----------0-----------0----------0----------0------|
 A|---5-----------5-----------5/7----------5-----------4----------4----------4----------4------------|
 D|--------------------------------------------------------------------------------------------------|

Bridge:

C#|-----------------------------------------------------------------------------------------------|
 A|------------0-----------0----------0----------0---------0-----------0--------------------0-----|
F#|------0-----------0----------0----------0----------0----------0-----------0--------0-----------|
 D|---------0-----------0----------0----------0----------0----------0-----------0--------0--------|
 A|-------------------------------------5---------------------------------------------------------|
 D|---5----------5/7/5-------4----------------------5--------5/7/5--------4--------0--------------|

C#|-----------------------------------------------------------------------------------------------|
 A|------------0-----------0----------0----------0---------0-----------0--------------------0-----|
F#|------0-----------0----------0----------0----------0----------0-----------0--------0-----------|
 D|---------0-----------0----------0----------0----------0----------0-----------0--------0--------|
 A|-------------------------------------5---------------------------------------------------------|
 D|---5----------5/7/5-------4----------------------5--------5/7/5--------4--------0--------------|

Chorus:

C#|--------------------------------------------------------------------------------------------------|
 A|------------5-----------5------------7-----------5----------4-----------4----------4----------4---|
F#|------0-----------0------------0-----------0----------0-----------0----------0----------0---------|
 D|---------0-----------0------------0-----------0----------0-----------0----------0----------0------|
 A|---5-----------5-----------5/7----------5-----------4----------4----------4----------4------------|
 D|--------------------------------------------------------------------------------------------------|

C#|--------------------------------------------------------------------------------------------------|
 A|------------5-----------5------------7-----------5----------4-----------4----------4----------4---|
F#|------0-----------0------------0-----------0----------0-----------0----------0----------0---------|
 D|---------0-----------0------------0-----------0----------0-----------0----------0----------0------|
 A|---5-----------5-----------5/7----------5-----------4----------4----------4----------4------------|
 D|--------------------------------------------------------------------------------------------------|

Outro:

C#|----------------------------------------------0-----------------------------------------------------|
 A|------------0-----------0-----------0---------------------0-----------0-----------0-----------0-----|
F#|------0-----------0-----------0----------0----------0-----------0-----------0-----------0-----------|
 D|---------0-----------0-----------0----------0----------0-----------0-----------0-----------0--------|
 A|---2-----------0-----------4---------------------2-----------0-----------4--------------------------|
 D|--------------------------------------4----------------------------------------------4--------------|

C#|----------------------------------------------0-----------------------------------------------0------|
 A|------------0-----------0-----------0---------------------0-----------0-----------0------------------|
F#|------0-----------0-----------0----------0----------0-----------0-----------0-----------0------------|
 D|---------0-----------0-----------0----------0----------0-----------0-----------0-----------0---------|
 A|---2-----------0-----------4---------------------2-----------0-----------4---------------------------|
 D|--------------------------------------4----------------------------------------------4-------------0-|


************************************

| /   slide up
| \   slide down
| h   hammer-on
| p   pull-off
| ~   vibrato
| +   harmonic
| x   Mute note
| b   Bend
| pb  Pre-bend
| br  Bend release
| pbr Pre-bend release
| brb Bend release bend

************************************
Добавлено: 29.12.2015
Другие материалы по этой песне:
  • Аккорды и текст

Страница создана 29.12.2015
http://primanota.ru/empty-wood/ridgeline-chords.htm
Привет, Гость.
Предлагаем пройти революционный курс по гитаре.
Подарок от PrimaNota.Ru, забирай!