PrimaNota.ru - самый крупный в мире бесплатный архив песенных текстов, аккордов, табулатур и нот


Empires - Leverage - бас-таба, видео

Регистрация Запомнить меня
Войти через:  Facebook Google Twitter Vk Yandex Mail.ru

Empires - Leverage - бас-таба, видео

Печатать
Просмотров: 120
Intro: (Let Ring)x1

F:--------------------------------------------|
C:--------------------------------------------|
G:---------5----------------------------------|
C:--8-------------5--------5-----3-3-3-3-5-5--|

Intro: (strum)x1

F:--------------------------------------------|
C:--------------------------------------------|
G:-------5(x16)-------------------------------|
C:-8(x16)------5(x16)---5(x8)----3-3-3-3-4-4--|

Two Step Riff: x2

F:--------------------------------------------|
C:--------------------------------------------|
G:-------5(x16)-------------------------------|
C:-8(x16)------5(x16)---5(x8)----3-3-3-3-4-4--|

Transition:

x1
F:-------------------|
C:-------------------|
G:-------------------|
C:------5~~----------|

Breakdown 1: x4

F:--------------------------------------------|
C:--------------------------------------------|
G:--------------------------------------------|
C:--5/0--0-0-----5/0--0-0------3/0--0-0---5~--|

Bridge: x2

F:--------------------------------------------|
C:--------------------------------------------|
G:--------------------------------------------|
C:--0----0----0----0------0-0-0-0-0~~~~-------|

F:--------------------------------------------|
C:--------------------------------------------|
G:--------------------------------------------|
C:--0----0----0----0------0-0-0-0-8~--8-8-10~-|

Breakdown 2: x2

F:--------------------------------------------|
C:--------------------------------------------|
G:--------------------------------------------|
C:--0----0----0----0------0-0-0-0-0~~~~-------|

F:--------------------------------------------|
C:--------------------------------------------|
G:--------------------------------------------|
C:--0----0----0----0------0-0-0-0-8~--8-8-10~-|

Transition 2: x1

F:-----------------|
C:-----------------|
G:-----------------|
C:---0-------------|

Melodic Bridge: x2

F:--------------------------------------------|
C:--------------------------------------------|
G:--------------------------------------------|
C:--8--8--8--8--8-8-8-8-8----8-8-8------------|

F:--------------------------------------------|
C:--------------------------------------------|
G:--------------------------------------------|
C:--0--0--0--0--0-0-0-0-0----0-0-0------------|

Breakdown 3: x4

F:--------------------------------------------|
C:--------------------------------------------|
G:--------------------------------------------|
C:--0--0--0--0--0-0-0-0-0----0-0-0------------|

F:----------------------------------|
C:----------------------------------|
G:----------------------------------|
C:--0--0--0--0--0-0-0-0-8----8-8-10-|

Hi-hat Breakdown: x2

F:--------------------------------------------|
C:--------------------------------------------|
G:--------------------------------------------|
C:-0--0--0--0--0-0-0-0-0----0-0-0-------------|

F:--------------------------------------------|
C:--------------------------------------------|
G:--------------------------------------------|
C:-0--0--0--0--0-0-0-0-0----0-0-1-0-0-0-0-----|
Добавлено: 03.07.2012
Другие материалы по этой песне:
  • Аккорды и текст

Страница создана 03.07.2012
http://primanota.ru/empires/leverage-chords.htm
Привет, Гость.
Предлагаем пройти революционный курс по гитаре.
Подарок от PrimaNota.Ru, забирай!