PrimaNota.ru - самый крупный в мире бесплатный архив песенных текстов, аккордов, табулатур и нот


Empire Empire I Was A Lonely Estate - Year Of The Rabbit - таба, видео

Регистрация Запомнить меня
Войти через:  Facebook Google Twitter Vk Yandex Mail.ru

Empire Empire I Was A Lonely Estate - Year Of The Rabbit - таба, видео

Печатать
Просмотров: 188
-------------------------------------------------------------------------------
         YEAR OF THE RABBIT - Empire Empire(I was a lonely estate)
-------------------------------------------------------------------------------
Tabbed by: slarbiter
E-mail: souperman_24@yahoo.com

Tuning: Standard

Intro:

Guitar 1
e|------------------------------------------------------------------|
B|------------------------------------------------------------------|
G|------------------------------------------------------------------|
D|-12-12-12-12-9-9----12-12-12-12-9-9----7-7-7-7-9-9----7-7-7-7-9-5-|
A|------------------------------------------------------------------|
E|------------------------------------------------------------------|

e|--------------------------------------------|
B|--------------------------------------------|
G|--------------------------------------------|
D|-5-5/7-9----5-5/7-9-7-9----5-5/7-9----5-7-9-|
A|--------------------------------------------|
E|--------------------------------------------|

Guitar 2
e|--------------------------------------------|
B|-----0----------0----------0----------0-----|
G|------0-0--------0-0--------0-0--------0-0--|
D|---5---5------7---0------9---0------0---0---|
A|-33-5-------55-5-------77-7--------2-2------|
E|----------------------------------3---------|

Pre-verse:

Guitar 1 (you can use either 12 on the E string or 7 on the A string)
e|-----------------------------------|
B|-----------------------------------|
G|-----------------------------------|
D|-2-4-5----12-12-12-12-10-10-9-9----|
A|------------7--7--7--7--7--7-7-7---|
E|-----------------------------------|

Guitar 2
e|------------------------------------|
B|-------0-------0-------0------------|
G|-7-7-7---5-5-5---4-4-4---4-4-0-0----|
D|--5-5-5-5-5-5-5-5-5-5-5-5-5-5-5-5---|
A|------------------------------------|
E|------------------------------------|

Verse:

Guitar 1
e|-----palm mute these chords------|
B|---------------------------------|
G|--7---4---5---4---7---2---4---0--|
D|--5---5---5---5---5---5---5---5--|
A|---------------------------------|
E|---------------------------------|

Guitar 2 just plays the intro during the verse

Repeat Pre-verse

On the second verse guitar 1 plays the same thing while guitar 2 plays this
e|----------------------|
B|-------3-1-0----------|
G|------0------0--------|
D|-----0------0-0-------|
A|----3---3-3-----------|
E|----------------------|

Then at the end of the verse guitar 1...
e|---------------------------------------------------------|
B|---------------------------------------------------------|
G|--7-7-7-7-7-7-9-9-9-9-9-9-12-12-12-12-12-12--------------|
D|--------------------------------------------5-5-5-5-5-5--|
A|--5-5-5-5-5-5-7-7-7-7-7-7-10-10-10-10-10-10--------------|
E|--------------------------------------------3-3-3-3-3-3--|

Repeat the first verse

End the song with this
e|----------------|
B|----------------|
G|--9--11---12----|
D|----------------|
A|--7--9----10----|
E|----------------|

************************************

| /   slide up
| \   slide down
| h   hammer-on
| p   pull-off
| ~   vibrato
| +   harmonic
| x   Mute note
| b   Bend
| pb  Pre-bend
| br  Bend release
| pbr Pre-bend release
| brb Bend release bend

************************************
Добавлено: 29.11.2013
Другие материалы по этой песне:

Страница создана 15.08.2013
http://primanota.ru/empire-empire-i-was-a-lonely-estate/year-of-the-rabbit-chords.htm
Привет, Гость.
Предлагаем пройти революционный курс по гитаре.
Подарок от PrimaNota.Ru, забирай!