PrimaNota.ru - самый крупный в мире бесплатный архив песенных текстов, аккордов, табулатур и нот


Empire Empire I Was A Lonely Estate - Water - таба, бас-таба, видео

Регистрация Запомнить меня
Войти через:  Facebook Google Twitter Vk Yandex Mail.ru

Empire Empire I Was A Lonely Estate - Water - таба, бас-таба, видео

Печатать
Просмотров: 55
-------------------------------------------------------------------------------
                             Water - Empire! Empire! (I Was A Lonely Estate.)
-------------------------------------------------------------------------------
Tabbed by: Joe H
E-mail: joey2_96@yahoo.com

Tuning: Standard (Capo 1)

Guitar 1:

X4
e|---------------------------------------------------------------------------|
B|---------------------------------------------------------------------------|
G|---------------------------------------------------------------------------|
D|---0-0-0--0-0-0--0-0-0--0-0-0--0-0-0--0-0-0--0-0-0--0-0-0------------------|
A|---3-3-3--0-0-0--7-7-7--5-5-5--3-3-3--0-0-0--7-7-7--9-9-9------------------|
E|---------------------------------------------------------------------------|

X4
e|---------------------------------------------------------------------------|
B|---------------------------------------------------------------------------|
G|---4-0-0--4-0-0--4-0-0--4-0-0----------------------------------------------|
D|---5-0-4--5-0-4--5-0-4--5-0-4--5-5-5--7-7-7--7-7-7--5-5-5------------------|
A|---3-3-5--3-3-5--3-3-5--3-3-5--7-7-7--7-7-7--5-5-5--5-5-5------------------|
E|---------------------------------------------------------------------------|

X2 Palm Muted
e|---------------------------------------------------------------------------|
B|---------------------------------------------------------------------------|
G|---------------------------------------------------------------------------|
D|---000000--000000--000000--000000--000000--000000--000000--000000----------|
A|---333333--000000--777777--555555--333333--000000--777777--999999----------|
E|---------------------------------------------------------------------------|

Then
e|---------------------------------------------------------------------------|
B|---------------------------------------------------------------------------|
G|--------0----0----0----0----0----0---0---0---0---0---0---------------------|
D|-----12---12---12---10---10---10---9---9---9---5---5---5-------------------|
A|---------------------------------------------------------------------------|
E|---------------------------------------------------------------------------|

e|---------------------------------------------------------------------------|
B|---------------------------------------------------------------------------|
G|-------0---0---0---0---0---0---0---0---0---0---0---0-----------------------|
D|-----9---9---9---7---7---7---2---2---2---0---0---0-------------------------|
A|---------------------------------------------------------------------------|
E|---------------------------------------------------------------------------| Both of these X2 


X2 All held
e|---------------------------------------------------------------------------|
B|---------------------------------------------------------------------------|
G|---------------------------------------------------------------------------|
D|---5---7---4------5---7---2---0--------------------------------------------|
A|---7---5---3------7---5---3---3--------------------------------------------|
E|---------------------------------------------------------------------------|

X4
e|----------------------------------------------------------|-----------------|
B|----------------------------------------------------------|-----------------|
G|---4-0-0--4-0-0--4-0-0--4-0-0-----------------------------|---4-------------|
D|---5-0-4--5-0-4--5-0-4--5-0-4--5-5-5--7-7-7--7-7-7--5-5-5-|---5-------------|
A|---3-3-5--3-3-5--3-3-5--3-3-5--7-7-7--7-7-7--5-5-5--5-5-5-|---3-------------|
E|----------------------------------------------------------|-----------------|
                                                                Last time only



************************************

| /   slide up
| \   slide down
| h   hammer-on
| p   pull-off
| ~   vibrato
| +   harmonic
| x   Mute note
| b   Bend
| pb  Pre-bend
| br  Bend release
| pbr Pre-bend release
| brb Bend release bend

************************************
Добавлено: 04.04.2016
Другие материалы по этой песне:
  • Аккорды и текст

Страница создана 04.04.2016
http://primanota.ru/empire-empire-i-was-a-lonely-estate/water-chords.htm
Привет, Гость.
Предлагаем пройти революционный курс по гитаре.
Подарок от PrimaNota.Ru, забирай!