PrimaNota.ru - самый крупный в мире бесплатный архив песенных текстов, аккордов, табулатур и нот


Empire Empire I Was A Lonely Estate - Ribbon - таба, видео

Регистрация Запомнить меня
Войти через:  Facebook Google Twitter Vk Yandex Mail.ru

Empire Empire I Was A Lonely Estate - Ribbon - таба, видео

Печатать
Просмотров: 123
Уроки эстрадного вокала в Санкт-Петербурге
-------------------------------------------------------------------------------
                             Ribbon - e!e!(iwale)
-------------------------------------------------------------------------------
Tabbed by: Joe H
E-mail: joey2_96@yahoo.com

Tuning: Standard Capo 3 (Capo 2 on the album)

Keith taps the single notes, but you can pick them as well

e|---------------------------------------------------------------------------|
B|---------------------------------------------------------------------------|
G|---------------------------------------------------------------------------|
D|---------------------------------------------------------------------------|
A|--3------------------------------------------------------------------------|
E|---------5------3----------------------------------------------------------|

On "You were shaken and dazed.." until the end of the song
e|---------------------------------------------------------------------------|
B|------0------0-------------------------------------------------------------|
G|---------------------0-----------------------------------------------------|
D|----0------0-------0-------------------------------------------------------|
A|--3------------------------------------------------------------------------|
E|---------5-------3---------------------------------------------------------|




************************************

| /   slide up
| \   slide down
| h   hammer-on
| p   pull-off
| ~   vibrato
| +   harmonic
| x   Mute note
| b   Bend
| pb  Pre-bend
| br  Bend release
| pbr Pre-bend release
| brb Bend release bend

************************************
Добавлено: 04.04.2016
Другие материалы по этой песне:
  • Аккорды и текст

Страница создана 04.04.2016
http://primanota.ru/empire-empire-i-was-a-lonely-estate/ribbon-chords.htm
Привет, Гость.
Предлагаем пройти революционный курс по гитаре.
Подарок от PrimaNota.Ru, забирай!