PrimaNota.ru - самый крупный в мире бесплатный архив песенных текстов, аккордов, табулатур и нот


Empire Empire I Was A Lonely Estate - A Keepsake - таба, видео

Регистрация Запомнить меня
Войти через:  Facebook Google Twitter Vk Yandex Mail.ru

Empire Empire I Was A Lonely Estate - A Keepsake - таба, видео

Печатать
Просмотров: 61
-------------------------------------------------------------------------------
                             A Keepsake - e!e!(iwale)
-------------------------------------------------------------------------------
Tabbed by: Joe H
E-mail: joey2_96@yahoo.com

Tuning: Standard Capo 4

Tab not relative to capo

X8
e|---------------------------------------------------------------------------|
B|---------------------------------------------------------------------------|
G|------4------4----4------4------4---4--------------------------------------|
D|----4---4-13---11------4---4-----------------------------------------------|
A|--7-----------------11-------14---9----------------------------------------|
E|---------------------------------------------------------------------------|

Alternate between the following two part, four times
e|---------------------------------------------------------------------------|
B|---------------------------------------------------------------------------|
G|---------------------------------------------------------------------------|
D|--4-4-4-8-8-9-9-9--11-11-11-11-13-13-13-13---------------------------------|
A|--7-7-7-7-7-7-7-7---9--9--9--9--9--9--9--9---------------------------------|
E|---------------------------------------------------------------------------|

e|---------------------------------------------------------------------------|
B|---------------------------------------------------------------------------|
G|---------------------------------------------------------------------------|
D|--4-4-4-8-8-9-9-9--16-16-16-16-13-13-13-13---------------------------------|
A|--7-7-7-7-7-7-7-7--14-14-14-14-11-11-11-11---------------------------------|
E|---------------------------------------------------------------------------|

X4
e|--------------------------------------------------------------------------------------------|---|
B|--------------------------------------------------------------------11-11-11-11-12-12-12-12-|---|
G|--11--4-11--4-11--4-11--4--4-4-4-4-8-8-8-8---9--9--9--9--4--4--4--4--4--4--4--4--4--4--4--4-|-4-|
D|--13-13-13-13-13-13-13-13--6-6-6-6-9-9-9-9--11-11-11-11-11-11-11-11--9--9--9--9--9--9--9--9-|-4-|
A|--11-11-11-11-11-11-11-11--7-7-7-7-7-7-7-7---9--9--9--9--9--9--9--9--7--7--7--7--7--7--7--7-|-7-|
E|--------------------------------------------------------------------------------------------|---|
                                                                                                ^4th time

e|---------------------------------------------------------------------------|
B|-----4--------------4-----4-----4-----------------4------4-----------------|
G|---4--------------4-----4-----4-----------------4------4-------------------|
D|-------13-11-9--------------------13-11-9----------------------------------|
A|--7-------------7-----9-----7-------------11/17-----15---------------------|
E|---------------------------------------------------------------------------|

End on
e|-----|
B|-----|
G|--4--|
D|--4--|
A|--7--|
E|-----|



************************************

| /   slide up
| \   slide down
| h   hammer-on
| p   pull-off
| ~   vibrato
| +   harmonic
| x   Mute note
| b   Bend
| pb  Pre-bend
| br  Bend release
| pbr Pre-bend release
| brb Bend release bend

************************************
Добавлено: 04.04.2016
Другие материалы по этой песне:
  • Аккорды и текст

Страница создана 04.04.2016
http://primanota.ru/empire-empire-i-was-a-lonely-estate/keepsake-chords.htm
Привет, Гость.
Предлагаем пройти революционный курс по гитаре.
Подарок от PrimaNota.Ru, забирай!