PrimaNota.ru - самый крупный в мире бесплатный архив песенных текстов, аккордов, табулатур и нот


Empire Empire I Was A Lonely Estate - Everything Rests On Your Small Shoulders - таба, видео

Регистрация Запомнить меня
Войти через:  Facebook Google Twitter Vk Yandex Mail.ru

Empire Empire I Was A Lonely Estate - Everything Rests On Your Small Shoulders - таба, видео

Печатать
Просмотров: 149
EVERYTHING RESTS ON YOUR SMALL SHOULDERS - Empire! Empire! (I was a lonely estate)

tabbed by Brandon
email: brugmanb1000@hotmail.com

There are probably a few minor discrepancies, but this is how I play it. It should be at 
least 90% correct

Tuning: Standard
Keith plays capo 3. I play capo 1 and even then the high notes are still kind of hard to 
hit, but this song is so good.

Good luck!

Part 1

e:|0-0-0-0-0-0-0-0-0-0-0-0-0-0-0-0-|
B:|0-0-0-0-0-0-0-0-0-0-0-0-0-0-0-0-|
G:|0-0-0-0-0-0-0-0-0-0-0-0-0-0-0-0-|  REPEAT x2
D:|5-5-5-5-4-4-4-4-2-2-2-2-9-9-9-9-|
A:|7-7-7-7-5-5-5-5-3-3-3-3-10101010|
E:|0-0-0-0-0-0-0-0-0-0-0-0-0-0-0-0-|

Part 2

       ...I remember when...
e:--------------------|-------------------------------------|
B:--------------0-0-0-|----0------3/5p0---------------0-0-0-|
G:-0---0--9-9-9-------|--0--0---0--------0---0--9-9-9-------| x4
D:7-7-5-5-------------|-2-2--2-2-2------7-7-5-5-------------|
A:--------------------|-------------------------------------|
E:--------------------|-------------------------------------|

...the back yard like saint.
e:-----------------|
B:----0------3/5p0-|
G:--0--0---0-------|
D:-2-2--2-2-2------|
A:-----------------|
E:-----------------|

Part 3

                      ...or a shepherd tending...

e:|--------------------------------------------------------|
B:|--------------------------------------------------------|
G:|--------------------------------------------------------|
D:|2-2-2-2-5-5-5-5-0-0-0-0-5-5-5-5-0-0-0-0-0-0-0-0-10109-9-|
A:|0-0-0-0-0-0-0-0-0-0-0-0-0-0-0-0-0-0-0-0-0-0-0-0-0-0-0-0-|
E:|--------------------------------8-8-8-8-8-8-8-8---------|

e:------------------------------------------------|
B:------------------------------------------------|
G:------------------------------------------------| REPEAT x3
D:2-2-2-2-5-5-5-5-0-0-0-0-4-4-4-4-10109-9-7-7-4-4-|
A:0-0-0-0-0-0-0-0-0-0-0-0-0-0-0-0-0-0-0-0-0-0-0-0-|
E:------------------------------------------------|

Part 4

           ...You carried on like all the world was yours...

e:|0-0-0-0-0-0-0-0-0-0-0-0-0-0-0-0-|
B:|0-0-0-0-0-0-0-0-0-0-0-0-0-0-0-0-|
G:|0-0-0-0-0-0-0-0-0-0-0-0-0-0-0-0-| REPEAT x4
D:|5-5-5-5-4-4-4-4-2-2-2-2-9-9-9-9-|
A:|7-7-7-7-5-5-5-5-3-3-3-3-10101010|
E:|0-0-0-0-0-0-0-0-0-0-0-0-0-0-0-0-|

e:0-0-0-0-0-0-0-0-|
B:0-0-0-0-0-0-0-0-|
G:0-0-0-0-0-0-0-0-|
D:0-0-0-0-5-5-5-5-|
A:0-0-0-0-5-5-5-5-|
E:0-0-0-0-3-3-3-3-|


************************************

| /   slide up
| \   slide down
| h   hammer-on
| p   pull-off
| ~   vibrato
| +   harmonic
| x   Mute note
| b   Bend
| pb  Pre-bend
| br  Bend release
| pbr Pre-bend release
| brb Bend release bend

************************************
Добавлено: 21.09.2013
Другие материалы по этой песне:
  • Аккорды и текст

Страница создана 21.09.2013
http://primanota.ru/empire-empire-i-was-a-lonely-estate/everything-rests-on-your-small-shoulders-chords.htm
Привет, Гость.
Предлагаем пройти революционный курс по гитаре.
Подарок от PrimaNota.Ru, забирай!