PrimaNota.ru - самый крупный в мире бесплатный архив песенных текстов, аккордов, табулатур и нот


Empire Empire I Was A Lonely Estate - An Idea Is A Better Monument Than A Cathedral - таба, видео

Регистрация Запомнить меня
Войти через:  Facebook Google Twitter Vk Yandex Mail.ru

Empire Empire I Was A Lonely Estate - An Idea Is A Better Monument Than A Cathedral - таба, видео

Печатать
Просмотров: 102
This is just the intro to this song, and only one guitar part.
Feel free to add more to this song if you know it. 
thelead3@gmail.com


e|-------------------------|     
B|-------------------------|     
G|-------------------------|     
D|-----9----9---9-8---9----| X 4 
A|--11---11---9-----9------|     
E|-------------------------|

e|-------------------------------------|
B|-------------------------------------|
G|----8-------8-------8-------8--------|
D|--------9-------9-------9-------9----|
A|--7---7---7---7---6---6---6---6---6--|
E|-------------------------------------|

e|-------------------------------------|
B|-------------------------------------|
G|-------------------------------------|
D|----9-------9-------9-------9--------|
A|--------9-------9-------9-------9----|
E|--7---7---7---7---7---7---7---7------|
Добавлено: 07.10.2013
Другие материалы по этой песне:
  • Аккорды и текст

Страница создана 07.10.2013
http://primanota.ru/empire-empire-i-was-a-lonely-estate/an-idea-is-a-better-monument-than-a-cathedral-chords.htm
Привет, Гость.
Предлагаем пройти революционный курс по гитаре.
Подарок от PrimaNota.Ru, забирай!