PrimaNota.ru - самый крупный в мире бесплатный архив песенных текстов, аккордов, табулатур и нот


Emperor - Ye Entrancemperium - текст песни, таба, видео

Регистрация Запомнить меня
Войти через:  Facebook Google Twitter Vk Yandex Mail.ru

Emperor - Ye Entrancemperium - текст песни, таба, видео

Печатать
Просмотров: 189
Авторы текста: Ihsahn
/--------------------------------------------------------------------------
/ The following is the author's own interpretation of the song, to be used/
/ for private use and studying                                            /
/--------------------------------------------------------------------------

Ye Entrancemperium
By Emperor
From the Album "Anthems To The Welkin At Dusk"

Transcribed by Andrew Anton

Well, anyone who has heard Anthems to the Welkin at Dusk would understand
What I mean when I say that some of the notes are extremely difficult to
hear. I tried to get this as accurate as possible, although I can't say it's
absolutely perfect.

A)
|------------------------------------------|
|------------------------------------------|
|11p10-11p10-11p10-9--11p10-11p10-11p10-11-|
|11p10-11p10-11p10-9--11p10-11p10-11p10-11-|
|-8--8--8--8--8--8-7---8--8--8--8--8--8--9-|
|------------------------------------------|

B)
|---------------------------------------|
|---------------------------------------|
|---------------------------------------|
|3-------------2-----3------------4-----|
|3-------------2-----3------------4-----|
|1-------------0-----1------------2-----|

C) (Guitar 1)
|---------------------------------------------|
|-8-/-----8--8--8-----8--8---9-------9---9--8-|
|-9-/-----9--9--9-----9--9--10------10--10--9-|
|-9-/-----9--9--9-----9--9--10------10--10--9-|
|---------------------------------------------|
|---------------------------------------------|
   (Guitar 2)
|------------------------------------------------------------------|
|------------------------------------------------------------------|
|------------------------------------------------------------------|
|------------------------------------------------------------------|
|------------------------------------------------------------------|
|-0--------------------------1--------------0----------------------|

D)
|---------------------|
|---------------------|
|---------------------|
|-9-----4-----9-----8-|
|-7-----2-----7-----6-|
|---------------------|

E)"Come on!"
|----------------------|
|----------------------|
|----------------------|
|----4-/-3-------4-\-7-|
|----4-/-3-------4-\-7-|
|-2-----------2--------|

F)
|--------------|
|--------------|
|--------------|
|--------------|
|-----6--5-----|
|-0---4--3-----|

G)
|-------|----------------------------------------|
|-------|----------------------------------------|
|-------|----------------------------------------|
|-------|-----------------------------------2222-|
|-\7777-|-----------------3322113333----1111-----|
|-------|-0000001122332211----------0000---------|

H) (Guitar 1)
|--------------------------------------------------------|
|--------------------------------------------------------|
|--------------2-----------------------------------------|
|--------2------------2-------------------3--------------|
|-0--------------------------------3-------------3-------|
|---------------------------1----------------------------|

   (Guitar 2)
|----------------------------------|
|----------------------------------|
|----------------------------------|
|-7--9p7--10p7--9p7--10p7--9--7----|
|----------------------------------|
|----------------------------------|

I)
|------------------|
|------------------|
|------0-----------|
|------------0-----|
|------------------|
|-0-------3----5-3-|

J)
|----------------------|
|----------------------|
|----------------------|
|-9-10-----------------|
|-7--8-10-9-7-10-9-5-2-|
|-------8-7-5--8-7-3-0-|
Добавлено: 25.07.2012
Другие материалы по этой песне:

Страница создана 23.04.2012
http://primanota.ru/emperor/ye-entrancemperium-chords.htm
Привет, Гость.
Предлагаем пройти революционный курс по гитаре.
Подарок от PrimaNota.Ru, забирай!