PrimaNota.ru - самый крупный в мире бесплатный архив песенных текстов, аккордов, табулатур и нот


Emmylou Harris - Oh Cumberland - таба, видео

Регистрация Запомнить меня
Войти через:  Facebook Google Twitter Vk Yandex Mail.ru

Emmylou Harris - Oh Cumberland - таба, видео

Печатать
Просмотров: 60
Авторы музыки: Matraca Berg

Intro
    D                 G/B           D                 G/B
E-----0----2---0----------------|-----0----2---0----------------|
B------3----3---3----------3----|------3----3---3----------3----|
G----2--2----2---2--------0-0---|----2--2----2---2--------0-0---|
D---0-------------0------0---0--|---0-------------0------0---0--|
A---------------------0h2-------|---------------------0h2-------|
E-------------------------------|-------------------------------|
                                                           Fog on the...
    G/B            D              G/B            D
E--------------------0-----|-----------------------0-----|
B--------3------------3----|-----------3------------3----|
G-------0-0---------2--2---|----------0-0---------2--2---|
D------0---0-------0----0--|---------0---0-------0----0--|
A---0h2--------------------|------0h2--------------------|
E--------------------------|-----------------------------|
1.      Fog on the asphalt             L.A.      freeway
2.      Lazy old river             not a lick of ambition

    G/B            D             A             D
E--------------------0-----|----------------------0-----|
B--------3------------3----|-------2-------------3-3----|
G-------0-0---------2--2---|--------2-----------2---2---|
D------0---0-------0----0--|------2--2---------0-----0--|
A---0h2--------------------|-----0----------------------|
E--------------------------|----------------------------|
1.       Santa Anna windstorm    come blow me away
2.  You get thru Kentucky        you're all on home

    G/B                      D           G/B          D
E------------------------------0-----|--------------------0-----|
B--------3----------------------3----|--------3------------3----|
G-------0-0-------------------2--2---|-------0-0---------2--2---|
D------0---0-----------------0----0--|------0---0-------0----0--|
A---0h2------------------------------|---0h2--------------------|
E------------------------------------|--------------------------|
1.       Cause this rearview mirror     could use some adjustment
2.       If you were a river, you wouldn't go nowhere

    G/B            D             A             D
E--------------------0-----|----------------------0-0h2----|
B--------3------------3----|-------2-------------3---------|
G-------0-0---------2--2---|--------2-----------2----------|
D------0---0-------0----0--|------2--2---------0----0------|
A---0h2--------------------|-----0-------------------------|
E--------------------------|-------------------------------|
1.     Some other reflection       some other place
2.     And I wouldn't be lost      out here all alone

CHORUS

    D       G/B          D
E-----0----------------|---0---------|
B------3----------3----|----3--------|
G----2--2--------0-0---|--2--2-------|
D---0-----------0---0--|-0-----------|
A------------0h2-------|-------------|
E----------------------|-------------|
 Oh Cumberland,   I am a faithful son

    G/B            D             A            A Asus4  A
E--------------------0-----|------------------------------------|
B--------3------------3----|--------2-------2---2--3--2---------|
G-------0-0---------2--2---|----------2---2----2-2--2--2--------|
D------0---0-------0----0--|-------2----2-----2---2--2-2--------|
A---0h2--------------------|-----0-----------0------------------|
E--------------------------|------------------------------------|
         No matter where I run      I hear you callin' me


    D                 G/B
E-----0-------------------------|
B------3-------------------3----|
G----2--2-----------------0-0---|
D---0--------------------0---0--|
A---------------------0h2-------|
E-------------------------------|
    The Mississippi is wide and long

    D                G/B           D
E-----0-----------------------|------0---------------------------|
B------3-----------------3----|-------3-----------------3--------|
G----2--2---------------0-0---|-----2--2-----------------0-------|
D---0------------------0---0--|----0-------------------0--0------|
A-------------------0h2-------|----------------------------------|
E-----------------------------|-----------------------3----------|
   From St. Paul to New Orleans.   My heart's restin' on the banks

    A            D
E-------------------0-0h2---|
B------2-----------3--------|
G-----2-2---------2---------|
D----2---2-------0----0-----|
A---0-----------------------|
E---------------------------|
Добавлено: 25.11.2015
Другие материалы по этой песне:
  • Аккорды и текст

Страница создана 25.11.2015
http://primanota.ru/emmylou-harris/oh-cumberland-chords.htm
Привет, Гость.
Предлагаем пройти революционный курс по гитаре.
Подарок от PrimaNota.Ru, забирай!