PrimaNota.ru - самый крупный в мире бесплатный архив песенных текстов, аккордов, табулатур и нот


Emmure - Last Words To Rose - текст песни, таба, видео

Регистрация Запомнить меня
Войти через:  Facebook Google Twitter Vk Yandex Mail.ru

Emmure - Last Words To Rose - текст песни, таба, видео

Печатать
Просмотров: 325
|---------------------------------------------------------------------------|
|--------10~------10~----10~--10~-------------------------------------------|
|------7~-------7~---7~-----7~---7~-----------------------------------------|
|----9~-------9~-------9~----------9~---------------------------------------|
|---------------------------------------------------------------------------|
|--0~-------0~--------------------------------------------------------------| 


|---------------------------------------------------------------------------|
|---------------------------------------------------------------------------|
|---------------------------------------------------------------------------|
|--0000000000000000---------------------------------------------------------|
|--3333333333333333---------------------------------------------------------|
|--0000000000000000---------------------------------------------------------| 


|---------------------------------------------------------------------------|
|---------------------------------------------------------------------------|
|--7-7b-7b-7b-7b-7b-7-------------------------------------------------------|
|---------------------------------------------------------------------------|
|---------------------------------------------------------------------------|
|---------------------------------------------------------------------------| 


|---------------------------------------10p9--------------------------------|
|--9~--8~----------9-----9-----9-----9p8----10~-----------------------------|
|----------8~--------7-8---7-8---7-8----------------------------------------|
|-------------9-------------------------------------------------------------|
|---------------8-9---------------------------------------------------------|
|---------------------------------------------------------------------------|

|---------------------------------------------------------------------------|
|---------------------------------------------------------------------------|
|---------------------------------------------------------------------------|
|------77-----7777-----77-----7777------------------------------------------|
|--555-55-555-5555-555-55-555-5555------------------------------------------|
|--555-55-555-5555-555-55-555-5555------------------------------------------|


|---------------------------------------------------------------------------|
|---------------------------------------------------------------------------|
|---------------------------------------------------------------------------|
|---------------------------------------------------------------------------|
|--3-33-33-3-333-555-3-33-33-3-333------------------------------------------|
|--3-33-33-3-333-333-3-33-33-3-333------------------------------------------|


|---------------------------------------------------------------------------|
|---------------------------------------------------------------------------|
|---------------------------------------------------------------------------| 
|---------------------------------------------------------------------------|
|----5-555------------------------------------------------------------------|
|----5-555------------------------------------------------------------------| 


|---------------------------------------------------------------------------|
|---------------------------------------------------------------------------|
|---------------------------------------------------------------------------|
|---------------------------------------------------------------------------|
|--3-33-33-3-333-555-3-33-33-3-333------------------------------------------|
|--3-33-33-3-333-333-3-33-33-3-333------------------------------------------|


|---------------------------------------------------------------------------|
|--------9~-10-9---------9~-10-9--------------------------------------------|
|----9~----------9---9~----------9------------------------------------------|
|--9~--9~----------9~--9~---------------------------------------------------|
|---------------------------------------------------------------------------|
|---------------------------------------------------------------------------|


|---------------------------------------------------------------------------|
|---------------------------------------------------------------------------|
|---------------------------------------------------------------------------|
|---------------------------------------------------------------------------|
|--5-55---5-55---5-55---5-55------------------------------------------------|
|--5-55---5-55---5-55---5-55------------------------------------------------|


|---------------------------------------------------------------------------|
|---------------------------------------------------------------------------|
|---------------------------------------------------------------------------|
|---------------------------------------------------------------------------|
|--0-00-----------------------------1-11------------------------------------|
|--0-00-1-0-1-1-0-1-1-0-1-1-0-1-1-0-1-11------------------------------------|


|---------------------------------------------------------------------------|
|---------------------------------------------------------------------------|
|---------------------------------------------------------------------------|
|---------------------------------------------------------------------------|
|--11-11-0~-----------------------------------------------------------------|
|--11-11-0~-----------------------------------------------------------------|
Добавлено: 11.05.2012
Другие материалы по этой песне:
  • Аккорды и текст

Страница создана 11.05.2012
http://primanota.ru/emmure/last-words-to-rose-chords.htm
Привет, Гость.
Предлагаем пройти революционный курс по гитаре.
Подарок от PrimaNota.Ru, забирай!