PrimaNota.ru - самый крупный в мире бесплатный архив песенных текстов, аккордов, табулатур и нот


Emmure - False Love In Real Life - текст песни, таба, видео

Регистрация Запомнить меня
Войти через:  Facebook Google Twitter Vk Yandex Mail.ru

Emmure - False Love In Real Life - текст песни, таба, видео

Печатать
Просмотров: 278
False Love In Real Life
Emmure
The Respect Issue-2008

Song Difficulty: Easy
Song Length: 3 minutes 39 seconds
Tuning: Drop A#


TAB MAKERS NOTE:

I don't know about anyone else, but I got sick and tired of waiting for someone to tab 
song out.

So i got un-lazy and did it myself.

It's in order, missing like 2 little lead spots.

I'm 95% sure on this tab's accuracy.

CONTACT ME: Aikuistenlelukauppa@homtail.com

Legend:
.- Palm Mute
B- Bend
H- Harmonic
P- Pinch Harmonic
X#- Repeat
~- Sustain/Let Ring
x- Pause(silent)
/- Slide
///- Pick Slide

Intro
C |----------------------------------|
G |----------------------------------|
D#|----------------------------------|
A#|----------------------------------|
F |-000-0000-000-0000-000-0000-00----|
A#|-111-1111-111-1111-111-1111-110~--|
    ... .... ... .... ... .... ..B

   Verse 1
C |---------------------------------------------------------------------|
G |---------------------------------------------------------------------|
D#|---------H-----------------H---------------H-----------------H-------|
A#|---------------------------------------------------------------------|
F |-0000000---00000000-000000---000---0000000---00000000-000000---000---|
A#|-1111111---11111111-111111---1110--1111111---11111111-111111---1110--|
     ......   ........  .....   ...B   ......   ........  .....   ...B

C |----------------------------------| |----------||   |------|
G |----------------------------------| |----------||   |------|
D#|---------H-----------------H------| |----------||   |------|
A#|----------------------------------| |----------||X3 |------|
F |-0000000---0000000-0000000---000--| |-0000000--||   |-000--|
A#|-8888888---8888888-8888888---8880-| |-1111111--||   |-111--|
     ......   .......  ......   ...B     .......         ...

   Breakdown 1
C |--------------------------------------------------------------------|
G |--------------------------------------------------------------------|
D#|--------------------------------------------------------------------|
A#|-------------------------------P------------------------------------|
F |-0000-00-0000-00000--5-0-------3-0000-00-0000-00000--5-0---3--------|
A#|-0000-00-0000-00000------6-5-3---0000-00-0000-00000------6---3-5-6--|
    .... .. .... .....              .... .. .... .....


C |---------------------------------------------|
G |---------------------------------------------|
D#|---------------------------------------------|
A#|---------------------------------------------|
F |-0x0x0x0x0x0x0x0x0x0x0--0x0x0x0x0x0x0x0x0x---|
A#|-1x1x1x1x1x1x1x1x1x1x1--8x8x8x8x8x8x8x8x8x8--|
                           . . . . . . . . . B


C |-------------------------------------------------------------------|
G |-------------------------------------------------------------------|
D#|-------------------------------------------------------------------|
A#|-------------------------------------------------------------------|
F |-0000-0000--00000-00000-000--0000-0000-0000--0000-00000-00000-000--|
A#|-0000-0000--00000-00000-000--0000-0000-0000--0000-00000-00000-000--|
    .... ....   ....  ....  .   .... .... ....  ....  ....  ....  .

                  Bridge
C |------------| |-----------------------------------||
G |------------| |-----------------------------------||
D#|------------| |-----------------------------------||
A#|------------| |-----------------------------------||X2
F |-0000-0000--| |-0~------------P--0~---------------||
A#|-0000-0000--| |-0~--6-5-3-0-3-5--0~--6-5-3-6-5-3--||
    .... ....                           . . . . . .

   Verse 2
C |-----------------------------------------------------------------------|
G |-----------------------------------------------------------------------|
D#|-----------------------------------------------------------------------|
A#|-----------------------------------------------------------------------|
F |-------------------------5-0----------------------------------5-0------|
A#|-036-036-036-036-036-036-----6-5-0-5--036-036-036-036-036-036-----5-6--|


C |----------------------------------------------||
G |----------------------------------------------||
D#|----------------------------------------------||
A#|----------------------------------------------||X2
F |-036-036-036-036-0363--036-036-5-0---3--------||
A#|-036-036-036-036-0363--036-036-----6---0-5-6--||
    ... ... ... ... ....  ... ...

         Breakdown 2
C |----------| |------------------|
G |----------| |------------------|
D#|----------| |-Find-the-Rhythm--|
A#|----------| |------------------|
F |-000-000--| |0-[X79?]----------|
A#|-111-111--| |1--------1/8------|
    ... ...     .

   Breakdown 3
C |-------------------------------------------------------------------|
G |-------------------------------------------------------------------|
D#|-------------------------------------------------------------------|
A#|-------------------------------------------------------------------|
F |-0000-0000--00000-00000-000--0000-0000-0000--0000-00000-00000-000--|
A#|-0000-0000--00000-00000-000--0000-0000-0000--0000-00000-00000-000--|
    .... ....   ....  ....  .   .... .... ....  ....  ....  ....  .

C |---------------------|
G |---------------------|
D#|---------------------|
A#|---------------------|
F |-0000-00000-00-------|
A#|-0000-00000-00--///--|
    ....  .... ..

   Verse 1 again
C |---------------------------------------------------------------|
G |---------------------------------------------------------------|
D#|------H--------------H---------------H-----------------H-------|
A#|---------------------------------------------------------------|
F |-0000---0000000-0000---000---0000000---00000000-000000---000---|
A#|-1111---1111111-1111---1110--1111111---11111111-111111---1110--|
     ...   .......  ...   ...B   ......   ........  .....   ...B

C |----------------------------------|
G |----------------------------------|
D#|---------H----------------H-------|
A#|----------------------------------|
F |-0000000---0000000-000000---000---|
A#|-8888888---8888888-888888---8880--|
     ......   .......  .....   ...B

   Outro
C |---------------------------------|
G |---------------------------------|
D#|---------------------------------|
A#|---------------------------------|
F |-0000000-0000000-0000000-0000-0--|
A#|-1111111-1111111-1111111-1111-1--|
    ....... ....... ....... .... .

That's it!

I hope you like it and have as much F#$*() fun with it as I do
Добавлено: 06.03.2012
Другие материалы по этой песне:
  • Аккорды и текст

Страница создана 06.03.2012
http://primanota.ru/emmure/false-love-in-real-life-chords.htm
Привет, Гость.
Предлагаем пройти революционный курс по гитаре.
Подарок от PrimaNota.Ru, забирай!