PrimaNota.ru - самый крупный в мире бесплатный архив песенных текстов, аккордов, табулатур и нот


Emmure - 10 Signs You Should Leave - таба, видео

Регистрация Запомнить меня
Войти через:  Facebook Google Twitter Vk Yandex Mail.ru

Emmure - 10 Signs You Should Leave - таба, видео

Печатать
Просмотров: 183
-------------------------------------------------------------------------------
                            10 SIGNS YOU SHOULD LEAVE - Emmure
-------------------------------------------------------------------------------
Tabbed by:JOO
Tuning:Drop A#

For all you EMMURE fans. Finaly the 10 signs tab is complete=]

       C
       G
       D#
       A#
       F
       A#

C-|------------------------------------|
G-|------------------------------------|
D#|------------------------------------|
A#|------------------------------------| x 2
F-|-13-0-12-0-0---13-0-12-0-12-0-0-----|
A#|-13-0-12-0-0---13-0-12-0-12-0-0-----|


C-|--------------------------------------|
G-|--------------------------------------|
D#|--------------------------------------|
A#|-----------------------------*-*-*----| 
F-|-0---------------------------1-3-1-0--|
A#|-0-0-13-0-12-0-0-0-13-0-12-0-1-3-1-0--|

C-|--------------------------------------|
G-|--------------------------------------|
D#|--------------------------------------|
A#|-----------------------------*-*-*----| 
F-|-0---------------------------1-1-1-0--|
A#|-0-0-13-0-12-0-0-0-13-0-12-0-1-1-1-0--|

C-|---------------------------------------|
G-|---------------------------------------| 
D#|-----*-*-*-*-*-------*-*-*-*-*-*-*-----|  
A#|-2-1-1-1-1-1-1--1-1--1-1-1-1-1-1-1--1--|   
F-|-2-1-1-1-1-1-1--1-1--1-1-1-1-1-1-1--1--|    
A#|-2-1-1-1-1-1-1--1-1--1-1-1-1-1-1-1--1--|     
                                                 
C-|---------------------------------------|
G-|---------------------------------------|
D#|--*-*-*-*-*-------*-*-*-*-*------------|
A#|--1-1-1-1-1--1-1--1-1-1-1-1------------|
F-|--1-1-1-1-1--1-1--1-1-1-1-1------------|
A#|--1-1-1-1-1--1-1--1-1-1-1-1------------|

C-|----|
G-|----|
D#|--*-| x18   Or at least thats what I tell myself.
A#|--1-|       I swear to god I never would of
F-|--1-|
A#|--1-|

C-|-------------------------------------|
G-|----5---5---5---5---5---5---5---5----|
D#|--*-8-*-8-*-8-*-8-*-8-*-8-*-8-*-8----|
A#|--0---0---0---0---0---0---0---0------|
F-|--0---0---0---0---0---0---0---0------|
A#|--0---0---0---0---0---0---0---0------|

C-|----|
G-|----|
D#|--*-| x16 this time with a bit of rythm. Learn the strum patters its   
A#|--1-|      not hard you faggots. 
F-|--1-|
A#|--1-|

C-|----------------------------------|
G-|----5-5-5-5-5-5----5-5-5-5-5-5-5--|
D#|--*-8-8-8-8-8-8-**-8-8-8-8-8-8-8--|
A#|--0-------------00----------------| x2
F-|--0-------------00----------------|
A#|--0-------------00----------------|


C-|-----------------------------------------------|
G-|-----------------------------------------------|
D#|--*--------------------------------------------|
A#|--0---00-0-0-1--00-00-00-1--00-0-0-1--00-00-0--|
F-|--0---00-0-0-1--00-00-00-1--00-0-0-1--00-00-0--|
A#|--0---00-0-0-1--00-00-00-1--00-0-0-1--00-00-0--|

chorus i geuss

C-|--------------------------|
G-|-----------------5---5----|
D#|--*--------------8---8----| x2 i, i still cry
A#|--0---0000-1p--0---0---0--|
F-|--0---0000-1p--0---0---0--|
A#|--0---0000-1p--0---0---0--|

Im prety sure you can figure out the rest for yourself=]

contact me at

yummy_soup@hotmail.com
or
http://profile.myspace.com/index.cfm?fuseaction=user.viewprofile&friendid=149993651

for any questions.
Добавлено: 04.03.2012
Другие материалы по этой песне:

Страница создана 04.03.2012
http://primanota.ru/emmure/10-signs-you-should-leave-chords.htm
Привет, Гость.
Предлагаем пройти революционный курс по гитаре.
Подарок от PrimaNota.Ru, забирай!