PrimaNota.ru - самый крупный в мире бесплатный архив песенных текстов, аккордов, табулатур и нот


Emma Ruth Rundle - Run Forever - таба, видео

Регистрация Запомнить меня
Войти через:  Facebook Google Twitter Vk Yandex Mail.ru

Emma Ruth Rundle - Run Forever - таба, видео

Печатать
Просмотров: 18
-------------------------------------------------------------------------------
                          Run Forever - Emma Ruth Rundle
-------------------------------------------------------------------------------
Tabbed by: Joe H
E-mail: joey2_96@yahoo.com

http://emmaruthrundle.com/

Tuning: A#/F/C/F/A#/C

I'm a little unsure of the tuning, but it sounds right for the most part.

She changes between strumming only the bottom few strings and full chords

It's a pretty straight forward song. Feel free to email me with improvements if it needs them.

Intro/Verse
C |---------------------------------------------------------------------------|
A#|---------------------------------------------------------------------------|
F |---------------------------------------------------------------------------|
C |----0-----0----0----0------------------------------------------------------|
F |----8----12----8----0------------------------------------------------------|
A#|----8----12----8----0------------------------------------------------------|

Chorus "If we both get caught..."
C |---------------------------------------------------------------------------|
A#|---------------------------------------------------------------------------|
F |---------------------------------------------------------------------------|
C |----0----0-----------------------------------------------------------------|
F |----3----5-----------------------------------------------------------------|
A#|----3----5-----------------------------------------------------------------|

Bridge "Just as soon..."
C |---------------------------------------------------------------------------|
A#|---------------------------------------------------------------------------|
F |---------------------------------------------------------------------------|
C |----0----0----0----0-----0----0----0----0----------------------------------|
F |----8----5----8----3----12----5----8----3----------------------------------|
A#|----8----5----8----3----12----5----8----3----------------------------------|

X4
C |---------------------------------------------------------------------------|
A#|---------------------------------------------------------------------------|
F |---------------------------------------------------------------------------|
C |----0----0-----------------------------------------------------------------|
F |----8----0-----------------------------------------------------------------|
A#|----8----0-----------------------------------------------------------------

Back into the chorus until she stops singing

then repeat the intro a couple of times and end on the open chord


************************************

| /   slide up
| \   slide down
| h   hammer-on
| p   pull-off
| ~   vibrato
| +   harmonic
| x   Mute note
| b   Bend
| pb  Pre-bend
| br  Bend release
| pbr Pre-bend release
| brb Bend release bend

************************************
Добавлено: 26.06.2016
Другие материалы по этой песне:
  • Аккорды и текст

Страница создана 26.06.2016
http://primanota.ru/emma-ruth-rundle/run-forever-chords.htm
Привет, Гость.
Предлагаем пройти революционный курс по гитаре.
Подарок от PrimaNota.Ru, забирай!