PrimaNota.ru - самый крупный в мире бесплатный архив песенных текстов, аккордов, табулатур и нот


Emma Bale - Run Lost Frequencies Remix - таба, видео

Регистрация Запомнить меня
Войти через:  Facebook Google Twitter Vk Yandex Mail.ru

Emma Bale - Run Lost Frequencies Remix - таба, видео

Печатать
Просмотров: 260
-------------------------------------------------------------------------------
                RUN (LOST FREQUENCIES REMIX) - Emma Bale
-------------------------------------------------------------------------------
Tabbed by: Blonky
E-mail: maddawg27@gmail.com
Notes: Nice simple up/down strumming pattern. Please add to and improve this tab to make it better!

Tuning: Standard, Capo 3

Intro/Chorus:
e|-0--x--0h3p0--------0--x--0---------x---0--x--0--x--0--0--x--0-------------|
B|-1--x--1-----0h1p0--1--x--1---------x---1--x--1--x--1--3--x--1p0-----------|
G|-2--x--2------------2--x--0h2p0h2---x---0--x--0--x--0--0--x--0-------------|
D|-2--x--2------------3--x--3---------x---2--x--2--x--2--2--x--2-------------|
A|----------------------------------------3--x--3--x--3--3--x--3-------------|
E|---------------------------------------------------------------------------|

e|-0--x--0h3p0--------0--x--0---------x---0--x--0--x--0--0--x--0--0----------|
B|-1--x--1-----0h1p0--1--x--1---------x---1--x--1--x--1--3--x--3-----3p1p0---|
G|-2--x--2------------2--x--0h2p0h2---x---0--x--0--x--0--0--x--0-------------|
D|-2--x--2------------3--x--3---------x---2--x--2--x--2--2--x--2-------------|
A|----------------------------------------3--x--3--x--3--3--x--3-------------|
E|---------------------------------------------------------------------------|

Verse:
Am     F     C

Pre-chorus:
e|--0------------|
B|-----3p1p0-----|
G|---------------|
D|---------------|
A|---------------|
E|---------------|


************************************

| /   slide up
| \   slide down
| h   hammer-on
| p   pull-off
| ~   vibrato
| +   harmonic
| x   Mute note
| b   Bend
| pb  Pre-bend
| br  Bend release
| pbr Pre-bend release
| brb Bend release bend

************************************
Добавлено: 18.04.2016
Другие материалы по этой песне:
  • Аккорды и текст

Страница создана 18.04.2016
http://primanota.ru/emma-bale/run-lost-frequencies-remix-chords.htm
Привет, Гость.
Предлагаем пройти революционный курс по гитаре.
Подарок от PrimaNota.Ru, забирай!