PrimaNota.ru - самый крупный в мире бесплатный архив песенных текстов, аккордов, табулатур и нот


Emma Bale - Fortune Cookie - аккорды и текст, видео

Регистрация Запомнить меня
Войти через:  Facebook Google Twitter Vk Yandex Mail.ru

Emma Bale - Fortune Cookie - аккорды и текст, видео

Печатать
Просмотров: 266
Fortune Cookie
Emma Bale
Emma Bale ft. Milow - Fortune Cookie
------------------------------------


Capo 5


Chords:
-------
Am: x02210 (used during the whole song)
F:  x3321x (used during the intro, verse 1 and pre-chorus 1)
F:  xx3213 (used during the chorus, verse 2, interlude, pre-chorus 2 and outro)
C:  x32010 (used during the intro, verse 1 and pre-chorus 1)
C:  x32013 (used during the chorus, verse 2, interlude, pre-chorus 2 and outro)
G:  320003 (used during the whole song)


Intro: 
------
Pattern:
   Am          F            G
e|------------------------|-----------------------||
B|------1-----------1-----|-----0----------0------||
G|--------2-----------2---|-------0----------0----||
D|----2-----2-----3-----2-|---0-----0----0-----0--||
A|-0-----------3----------|-----------------------||
E|------------------------|-3----------3----------||

Am    F        G
Dudu duru duru du 
Am    F    G
Dudu duru duru du 

  
Verse 1:
-------- 
Pattern: strum each chord once
e|---------------|----------------------||
B|-1------1------|-0--------------------||
G|-2------2------|-0--------------------||
D|-2------3------|-0--------------------||
A|-0------3------|-2--------------------||
E|---------------|-3--------------------||

          Am             F      G
They say Emma, you don't understand
 Am              F       G
You will need a helping hand
          Am                 F        G
They say Emma, you're still way too young
 Am             F         G
Just be quiet, bite your tongue


Pre-chorus 1:
-----------
Pattern:
   Am          F            G
e|------------------------|-----------------------||
B|------1-----------1-----|-----0----------0------||
G|------2-2---------2-2---|-----0-0--------0-0----||
D|----2-----2-----3-----2-|---0-----0----0-----0--||
A|-0-----------3----------|-----------------------||
E|------------------------|-3----------3----------||

Am                            Fmaj
Maybe I should listen to the ones who say there's
 G                        G
only black and white and only one right way
Am                     F               G 
All I need is time to figure this all out
 

Chorus:
-------
Pattern:
    F          G          Am        C
e|------3----------3-----|-----0---------3------|
B|------1-1--------0-0---|-----1-1-------1-1----|
G|----2-----2----0-----0-|---2----2----0-----0--|
D|--3--------------------|----------------------|
A|-----------------------|-0---------3----------|
E|-------------3---------|----------------------|


      F   G       Am             C
And why     am I waiting on the other side
      F   G         Am                     C
and why     do you say I'm wrong when you know I'm right
         F                   G 
I need lucky numbers and a Chinese phrase
       Am                C
in a fortune cookie on rainy days
    F   G
And I      say


Interlude:
---------
Pattern:
   Am         F           G
e|------0---------3-----|-----3----------3-----|
B|------1---------1-1---|-----0-0--------0-0---|
G|----2---2-----2-----2-|---0-----0----0----0--|
D|------------3---------|----------------------|
A|-0--------------------|----------------------|
E|----------------------|-3----------3---------|

Am    F       G
Dudu duru duru du 
Am    F       G
Dudu duru duru du 
Am    F       G
Dudu duru duru du 
Am    F       G
Dudu duru duru du 


Verse 2:
--------
Pattern:
   Am         F           G
e|------0---------3-----|-----3----------3-----|
B|------1---------1-1---|-----0-0--------0-0---|
G|----2---2-----2-----2-|---0-----0----0----0--|
D|------------3---------|----------------------|
A|-0--------------------|----------------------|
E|----------------------|-3----------3---------|

      Am              F       G
I say Emma, you will make it far
    Am             F      G
but only by being who you are
              Am            F        G
so I say let them talk and don't be shy
Am               F       G
Emma, keep your head up high


Pre-chorus 2:
-----------
Pattern:
   Am         F           G
e|------0---------3-----|-----3----------3-----|
B|------1---------1-1---|-----0-0--------0-0---|
G|----2---2-----2-----2-|---0-----0----0----0--|
D|------------3---------|----------------------|
A|-0--------------------|----------------------|
E|----------------------|-3----------3---------|

 Am                           F
Maybe I should listen to the ones who say there's
 G                        G
only black and white and only one right way
Am                     F               G 
All I need is time to figure this all out


Chorus:
-------
Pattern:
    F          G          Am        C
e|------3----------3-----|-----0---------3------|
B|------1-1--------0-0---|-----1-1-------1-1----|
G|----2-----2----0-----0-|---2----2----0-----0--|
D|--3--------------------|----------------------|
A|-----------------------|-0---------3----------|
E|-------------3---------|----------------------|

      F   G       Am             C
And why     am I waiting on the other side
      F   G         Am                     C
and why     do you say I'm wrong when you know I'm right
         F                   G 
I need lucky numbers and a Chinese phrase
       Am                C
in a fortune cookie on rainy days
    F   G
And I      say


Outro:
------
   Am         F           G
e|------0---------3-----|-----3----------3-----|
B|------1---------1-1---|-----0-0--------0-0---|
G|----2---2-----2-----2-|---0-----0----0----0--|
D|------------3---------|----------------------|
A|-0--------------------|----------------------|
E|----------------------|-3----------3---------|

Am    F       G
Dudu duru duru du 
Am    F       G   (strum last G once)
Dudu duru duru du 

Добавлено: 18.04.2016
Вам также может быть интересно:
Другие материалы по этой песне:
  • Аккорды и текст

Страница создана 18.04.2016
http://primanota.ru/emma-bale/fortune-cookie-chords.htm
Привет, Гость.
Предлагаем пройти революционный курс по гитаре.
Подарок от PrimaNota.Ru, забирай!