PrimaNota.ru - самый крупный в мире бесплатный архив песенных текстов, аккордов, табулатур и нот


Emma 6 - Köln-Wien - аккорды и текст, видео

Регистрация Запомнить меня
Войти через:  Facebook Google Twitter Vk Yandex Mail.ru

Emma 6 - Köln-Wien - аккорды и текст, видео

Печатать
Просмотров: 73
Уроки эстрадного вокала в Санкт-Петербурге
Köln-Wien
Emma 6
Artist: Emma6
Song: Köln-Wien
Tabbed by Max H.

Standard Tuning
Capo 4

Chord Used:
      C          Fmaj9          G6           F      
e|----0---|  e|----0---|  e|----0---|  e|----0---|
B|----1---|  B|----1---|  B|----1---|  B|----1---|
G|----0---|  G|----0---|  G|----0---|  G|----2---|  
D|----2---|  D|----3---|  D|----0---|  D|----3---|
A|----3---|  A|----3---|  A|----2---|  A|----0---|
E|----x---|  E|----x---|  E|----3---|  E|----x---|


Intro:  (2x)

e:|| ----0-------0---|----0-------0--- ||
B:|| ------1-------1-|------1-------1- ||
G:||.----------------|----------------.||
D:||.--2-------2-----|--2-------2-----.||
A:|| 3-------3-------|3-------3------- ||
E:|| ----------------|---------------- ||
     C                Fmaj9 


Verse Picking:         

e:|| ----0-------0---|----0-------0---|----0-------0---|----0-------0--- ||
B:|| ------1-------1-|------1-------1-|------1-------1-|------1-------1- ||
G:|| ----------------|----------------|----------------|---------------- ||
D:|| --2-------2-----|--3-------3-----|--2-------2-----|--3-------3----- ||
A:|| 3-------3-------|3-------3-------|3-------3-------|3-------3------- ||
E:|| ----------------|----------------|----------------|---------------- ||
     C                Fmaj9            C                Fmaj9          

e:|| ----------------|----------------|----0-------0---|---------------- ||
B:|| ----1-------1---|----1-------1---|------1-------1-|----3-1-----3-1- ||
G:|| ------0-------0-|------0-------0-|--2-------2-----|--2-------2----- ||
D:|| ----------------|----------------|3-------3-------|3-------3------- ||
A:|| --2-------2-----|--2-------2-----|----------------|---------------- ||
E:|| 3-------3-------|3-------3-------|----------------|---------------- ||
     G6               G6               F                F     


Verse 1:
C                Fmaj9
Es ist November, die Stadt ist voll Schnee
C                Fmaj9
Was machst du, außer hier fehlen?
G6
Ich bleib allein zurück auf bitterkalten Bahnsteigen
F
Mach die Augen zu und sehe deine. 


Chorus:
C
Kannst du mich hören? Kannst du du mich sehen?
Fmaj9
Weißt du die Zeit bleibt hier stehen
G6
Seit du weg bist, ist hier nichts mehr wie es war
F
Nur ich bin noch da

C     Fmaj9


Verse 2:
C               Fmaj9       
Die Tage kommen und geh'n nicht vorbei
C           Fmaj9
Wo bist du? Kann die Zeit das heilen?
G6
Ich lauf' durch leer gefegte Straßen bis es morgen wird
F
Such dich immer noch, hab's noch nicht kapiert


Chorus:
C
Kannst du mich hören? Kannst du du mich sehen?
Fmaj9
Weißt du die Zeit bleibt hier stehen
G6
Seit du weg bist, ist hier nichts mehr wie es war
F
Nur ich bin noch da

C     Fmaj9    C    Fmaj9

G6
Seit du weg bist, ist hier nichts mehr wie es war
F
Nur ich bin immernoch da


Outro:

C     Fmaj9    C    Fmaj9 (2x)

C     Fmaj9    C    Fmaj9  (repeat)
Ahaa Ahaaa      Ahaa Ahaaa


Добавлено: 27.04.2016
Другие материалы по этой песне:
  • Аккорды и текст

Страница создана 27.04.2016
http://primanota.ru/emma-6/koln-wien-chords.htm
Привет, Гость.
Предлагаем пройти революционный курс по гитаре.
Подарок от PrimaNota.Ru, забирай!