PrimaNota.ru - самый крупный в мире бесплатный архив песенных текстов, аккордов, табулатур и нот


Emit Remmus - Buck Rogers - таба, бас-таба, видео

Регистрация Запомнить меня
Войти через:  Facebook Google Twitter Vk Yandex Mail.ru

Emit Remmus - Buck Rogers - таба, бас-таба, видео

Печатать
Просмотров: 62
http://www.emit-remmus.tk

Title: Buck Rogers
Artist: Emit Remmus (originally by Feeder)
Album: n/a (Feeders "Echo Park")
Tabber: Mike Ellis aka w..w.we..wellyz  
Notes: We cover this because it's easy and fun to play, it's a personal
favourite of mine. As with any song there's many ways of playing it but
it's all down to preference. We made up some guitar 2 stuff so Lee 
wouldn't get bored !

Intro/Verse
  e|------------------------------------------|
G B|------------------------------------------|
T G|------------------------------------------|
R D|-14-14-14-14-14-14-14-14---6-6-6-7-7-7-7--| x6
1 A|-11-11-11-11-11-11-11-11---6-6-6-7-7-7-7--|
  E|-0--0--0--0--0--0--0--0--0-4-4-4-5-5-5-5--|


  e|------------------------------------------|
G B|-12----12----12----12------11-11--10--10--|
T G|-----9-----9-----9-----9-----9--9---9---9-|
R D|------------------------------------------| (play 3rd time round)
2 A|------------------------------------------|
  E|------------------------------------------|

Link
  e|------------------------------------------|
G B|------------------------------------------|
T G|-1-1-1-1-1-1-1-1--------------------------|
R D|-2-2-2-2-2-2-2-2-6-6-6-6-7-7-7-7----------| x2 
1 A|-2-2-2-2-2-2-2-2-6-6-6-6-7-7-7-7----------|
  E|-0-0-0-0-0-0-0-0-4-4-4-4-5-5-5-5----------|


  e|------------------------------------------|
G B|------------------------------------------|
T G|------------------------------------------|
R D|-2-2-2-2-2-2-2-2-6-6-6-6-7-7-7-7----------| x2
2 A|-2-2-2-2-2-2-2-2-6-6-6-6-7-7-7-7----------|
  E|-0-0-0-0-0-0-0-0-4-4-4-4-5-5-5-5----------|

then

  e|------------------------------------------|
G B|------------------------------------------|
T G|-8-8-8-8-8-8-8-8-6------------------------|
R D|-9-9-9-9-9-9-9-9-7-let ring---------------|  
1 A|-9-9-9-9-9-9-9-9-7------------------------|
  E|-7-7-7-7-7-7-7-7-5------------------------|


  e|------------------------------------------|
G B|------------------------------------------|
T G|------------------------------------------|
R D|-----------------7b9-7-7b9-7-7b9-7-7------|
2 A|------------------------------------------|
  E|------------------------------------------|

Chorus
  e|----------------------------------------------------------------|
G B|----------------------------------------------------------------|
T G|-1-1-1-1-1-1-1-1-8-8-8-8-8-8-8-8-10101010101010106-6-6-6-6-6-6-6|
R D|-2-2-2-2-2-2-2-2-9-9-9-9-9-9-9-9-11111111111111117-7-7-7-7-7-7-7|  
1 A|-2-2-2-2-2-2-2-2-9-9-9-9-9-9-9-9-11111111111111117-7-7-7-7-7-7-7|
  E|-0-0-0-0-0-0-0-0-7-7-7-7-7-7-7-7-9-9-9-9-9-9-9-9-5-5-5-5-5-5-5-5|


  e|----------------------------------------------------------------|
G B|----------------------------------------------------------------|
T G|-9-9-9-9-9-9-9-9------------------------------------------------|
R D|-9-9-9-9-9-9-9-9-9-9-9-9-9-9-9-9-111111111111111-7-7-7-7-7-7-7-7| 
2 A|-7-7-7-7-7-7-7-7-9-9-9-9-9-9-9-9-111111111111111-7-7-7-7-7-7-7-7|
  E|-----------------7-7-7-7-7-7-7-7-9-9-9-9-9-9-9-9-5-5-5-5-5-5-5-5|

then

  e|----------------------------------------------------------------|
G B|----------------------------------------------------------------|
T G|-1-1-1-1-1-1-1-1-8-8-8-8-8-8-8-8-6-6-6-6-6-6-6-6-6-6-6-6-6-6-6-6|
R D|-2-2-2-2-2-2-2-2-9-9-9-9-9-9-9-9-7-7-7-7-7-7-7-7-7-7-7-7-7-7-7-7|  
1 A|-2-2-2-2-2-2-2-2-9-9-9-9-9-9-9-9-7-7-7-7-7-7-7-7-7-7-7-7-7-7-7-7|
  E|-0-0-0-0-0-0-0-0-7-7-7-7-7-7-7-7-5-5-5-5-5-5-5-5-5-5-5-5-5-5-5-5|


  e|----------------------------------------------------------------|
G B|----------------------------------------------------------------|
T G|-9-9-9-9-9-9-9-9------------------------------------------------|
R D|-9-9-9-9-9-9-9-9-9-9-9-9-9-9-9-9-7-7-7-7-7-7-7-7-7-7-7-7-7-7-7-7| 
2 A|-7-7-7-7-7-7-7-7-9-9-9-9-9-9-9-9-7-7-7-7-7-7-7-7-7-7-7-7-7-7-7-7|
  E|-----------------7-7-7-7-7-7-7-7-5-5-5-5-5-5-5-5-5-5-5-5-5-5-5-5|

Bridge (BUCK ROGERS)
  e|------------------------------------------|
G B|------------------------------------------|
T G|-1-1-1-1-1-1-1-1--------------------------|
R D|-2-2-2-2-2-2-2-2-6-6-6-6-7-7-7-7----------| x2 
1 A|-2-2-2-2-2-2-2-2-6-6-6-6-7-7-7-7----------|
  E|-0-0-0-0-0-0-0-0-4-4-4-4-5-5-5-5----------|


  e|------------------------------------------|
G B|-----------------4---4-----5---5----------|
T G|-----------------6b9-6b9---7b107b10-------|
R D|------------------------------------------| x2
2 A|------------------------------------------|
  E|------------------------------------------|

Verse
  e|------------------------------------------|
G B|------------------------------------------|
T G|------------------------------------------|
R D|-14-14-14-14-14-14-14-14---6-6-6-7-7-7-7--| x4
1 A|-11-11-11-11-11-11-11-11---6-6-6-7-7-7-7--|
  E|-0--0--0--0--0--0--0--0--0-4-4-4-5-5-5-5--|


  e|------------------------------------------|
G B|-12----12----12----12------11-11--10--10--|
T G|-----9-----9-----9-----9-----9--9---9---9-|
R D|------------------------------------------| x4
2 A|------------------------------------------|
  E|------------------------------------------|

Link
  e|------------------------------------------|
G B|------------------------------------------|
T G|-1-1-1-1-1-1-1-1--------------------------|
R D|-2-2-2-2-2-2-2-2-6-6-6-6-7-7-7-7----------| x2 
1 A|-2-2-2-2-2-2-2-2-6-6-6-6-7-7-7-7----------|
  E|-0-0-0-0-0-0-0-0-4-4-4-4-5-5-5-5----------|


  e|------------------------------------------|
G B|------------------------------------------|
T G|------------------------------------------|
R D|-2-2-2-2-2-2-2-2-6-6-6-6-7-7-7-7----------| x2
2 A|-2-2-2-2-2-2-2-2-6-6-6-6-7-7-7-7----------|
  E|-0-0-0-0-0-0-0-0-4-4-4-4-5-5-5-5----------|

then

  e|------------------------------------------|
G B|------------------------------------------|
T G|-8-8-8-8-8-8-8-8-6------------------------|
R D|-9-9-9-9-9-9-9-9-7-let ring---------------|  
1 A|-9-9-9-9-9-9-9-9-7------------------------|
  E|-7-7-7-7-7-7-7-7-5------------------------|


  e|------------------------------------------|
G B|------------------------------------------|
T G|------------------------------------------|
R D|-----------------7b9-7-7b9-7-7b9-7-7------|
2 A|------------------------------------------|
  E|------------------------------------------|


Play Chorus x2


Interlude
G e|-----------------------------------------------------|
T B|-----------------------------------------------------|
R G|-3-3-3-3-5-6-6-6-6-9-9-9---3-3-3-3-5-6-6-6-6-6-6-6-6-|
1 D|-4-4-4-4-6-7-7-7-7-101010--4-4-4-4-6-7-7-7-7-7-7-7-7-|
+ A|-4-4-4-4-6-7-7-7-7-101010--4-4-4-4-6-7-7-7-7-7-7-7-7-|
2 E|-2-2-2-2-4-5-5-5-5-8-8-8---2-2-2-2-4-5-5-5-5-5-5-5-5-|


then

     
  e|----------------------------------------------------------|
G B|----------------------------------------------------------|
T G|----------------------------------------------------------|
R D|----------------------------------------------------------|
1 A|-1111119-9-9-9-6-6-6-4-4-4-4-1111119-9-9-9-6-6-6-7-7-7-7--|
  E|----------------------------------------------------------|

  e|----------------------------------------------------------|
G B|----------------------------------------------------------|
T G|----------------------------------------------------------|
R D|-------------------------------------------14141414-------|
1 A|-1111119-9-9-9-6-6-6-4-4-4-4-1111119-9-9-9-11111111-------|
  E|-------------------------------------------0-0-0-0--------|


  e|----------------------------------------------------------|
G B|-9-9-9-7-7-7-7-4-4-4-2-2-2-2-9-9-9-7-7-7-7-4-4-4-5-5-5-5--|
T G|----------------------------------------------------------|
R D|----------------------------------------------------------|
2 A|----------------------------------------------------------|
  E|----------------------------------------------------------|

  e|----------------------------------------------------------|
G B|-9-9-9-7-7-7-7-4-4-4-2-2-2-2-9-9-9-7-7-7-7----------------|
T G|----------------------------------------------------------|
R D|-------------------------------------------14141414-------|
2 A|-------------------------------------------11111111-------|
  E|-------------------------------------------0-0-0-0--------|

Bridge
  e|------------------------------------------|
G B|------------------------------------------|
T G|-1-1-1-1-1-1-1-1--------------------------|
R D|-2-2-2-2-2-2-2-2---6-6-6-6-7-7-7-7--------| x2 
1 A|-2-2-2-2-2-2-2-2---6-6-6-6-7-7-7-7--------|
  E|-0-0-0-0-0-0-0-0-0-4-4-4-4-5-5-5-5--------|

  e|------------------------------------------|
G B|------------------------------------------|
T G|------------------------------------------|
R D|-1414141414141414---6-6-6-7-7-7-7---------| x2
2 A|-1111111111111111---6-6-6-7-7-7-7---------|
  E|-0-0-0-0-0-0-0-0--0-4-4-4-5-5-5-5---------|


Play Chorus x2


Bridge
  e|------------------------------------------|
G B|------------------------------------------|
T G|-1-1-1-1-1-1-1-1--------------------------|
R D|-2-2-2-2-2-2-2-2---6-6-6-6-7-7------------|  
1 A|-2-2-2-2-2-2-2-2---6-6-6-6-7-7------------|
  E|-0-0-0-0-0-0-0-0-0-4-4-4-4-5-5------------|

  e|------------------------------------------|
G B|------------------------------------------|
T G|------------------------------------------|
R D|-1414141414141414---6-6-6-7-7-------------| 
2 A|-1111111111111111---6-6-6-7-7-------------|
  E|-0-0-0-0-0-0-0-0--0-4-4-4-5-5-------------|

END



To complicated ??? ah well, you'll survive.
Добавлено: 10.05.2016
Другие материалы по этой песне:
  • Аккорды и текст

Страница создана 10.05.2016
http://primanota.ru/emit-remmus-2/buck-rogers-chords.htm
Привет, Гость.
Предлагаем пройти революционный курс по гитаре.
Подарок от PrimaNota.Ru, забирай!