PrimaNota.ru - самый крупный в мире бесплатный архив песенных текстов, аккордов, табулатур и нот


Eminem - Who Knew - аккорды и текст, таба, бас-таба, видео

Регистрация Запомнить меня
Войти через:  Facebook Google Twitter Vk Yandex Mail.ru

Eminem - Who Knew - аккорды и текст, таба, бас-таба, видео

Печатать
Просмотров: 267
Авторы: Marshall Mathers, Andre Young, Mike Elizondo, Melvin Bradford

Who Knew
Eminem
Drop your low E to D...or use your 7th string

E|-------------------------------
B|-------------------------------
G|-------------------------------
D|-------------------------------
A|-------------------------------
E|-------------------------------
D|----9---11---6----4---9--------


E|-------------------------------
B|-------------------------------
G|-------------------------------
D|-------------------------------
A|-------------------------------
E|-------------------------------
D|----9---11---6----4---9--------


E|-------------------------------
B|-------------------------------
G|-------------------------------
D|-------------------------------
A|-------------------------------
E|-------------------------------
D|----9---11---6----4---9--------


E|-------------------------------
B|-------------------------------
G|-------------------------------
D|-------------------------------
A|-------------------------------
E|-------------------------------
D|----9---11---6----4---9--------


E|-------------------------------
B|-------------------------------
G|-------------------------------
D|-------------------------------
A|-------------------------------
E|-------------------------------
D|----9---11---6----4---9--------
Добавлено: 03.04.2014
Другие материалы по этой песне:
  • Аккорды и текст

Страница создана 05.05.2012
http://primanota.ru/eminem/who-knew-chords.htm
Привет, Гость.
Предлагаем пройти революционный курс по гитаре.
Подарок от PrimaNota.Ru, забирай!