PrimaNota.ru - самый крупный в мире бесплатный архив песенных текстов, аккордов, табулатур и нот


Eminem - The Way I Am - аккорды и текст, таба, бас-таба, видео

Регистрация Запомнить меня
Войти через:  Facebook Google Twitter Vk Yandex Mail.ru

Eminem - The Way I Am - аккорды и текст, таба, бас-таба, видео

Печатать
Просмотров: 608
Авторы музыки: Marshall Bruce Mathers
Авторы текста: Marshall Bruce Mathers
The Way I Am
Eminem

E |-------12--------12--------13--------13--|
B |-10-13-----10-13-----10-13-----10-13-----|
G |-----------------------------------------|
D |-----------------------------------------|
A |-----------------------------------------|
E |-----------------------------------------|
 
E |------10-------10--------12-------12--|
B |-9-12-----9-12------9-12-----9-12-----|
G |--------------------------------------|
D |--------------------------------------|
A |--------------------------------------|
E |--------------------------------------|

E |------8-------8-------10-------10--|
B |-9-10----9-10----9-10-----9-10-----|
G |-----------------------------------|
D |-----------------------------------|
A |-----------------------------------|
E |-----------------------------------|

E |-----------------------------------|
B |---10-12----10-12----9-10----9-10--|
G |-9--------9--------9-------9-------|
D |-----------------------------------|
A |-----------------------------------|
E |-----------------------------------|
Добавлено: 16.03.2014
Другие материалы по этой песне:

Страница создана 03.03.2012
http://primanota.ru/eminem/the-way-i-am-chords.htm
Привет, Гость.
Предлагаем пройти революционный курс по гитаре.
Подарок от PrimaNota.Ru, забирай!