PrimaNota.ru - самый крупный в мире бесплатный архив песенных текстов, аккордов, табулатур и нот


Eminem - Superman - аккорды и текст, таба, бас-таба, видео

Регистрация Запомнить меня
Войти через:  Facebook Google Twitter Vk Yandex Mail.ru

Eminem - Superman - аккорды и текст, таба, бас-таба, видео

Печатать
Просмотров: 1340
Авторы музыки: Jeff Bass, Steve King, Eminem

Superman
Eminem
Intro:
E|--------------------------------------------
B|--------------------------------------------
G|--------2---------------0---------0---------
D|-----2--------2-------2--------2----------2-
A|--0--------0-------3--------2----------2----
E|------------------------------------0-------

E|--------------------------------------------
B|-----------------------------8------8----12-
G|---------2----------------9-------9------9--
D|------2---------2-----10--------9--------9--
A|---0---------0------------------------------
E|--------------------------------------------


Chorus: First Eminem sings the chorus and this part is played
E|--------------------------------------------
B|---5--7--8--10-12-10--8--7--5---------------
G|--------------------------------------------
D|--------------------------------------------
A|--------------------------------------------
E|--------------------------------------------

E|----------------7------10--8--7--------------
B|---5--7--8--10-----10------------------------
G|---------------------------------------------
D|---------------------------------------------
A|---------------------------------------------
E|---------------------------------------------

E|--------------------------------------------
B|---5--7--8--10-12-10--8--7--5---------------
G|--------------------------------------------
D|--------------------------------------------
A|--------------------------------------------
E|--------------------------------------------

E|----------------7------10--8--7--------------
B|---5--7--8--10-----10------------------------
G|---------------------------------------------
D|---------------------------------------------
A|---------------------------------------------
E|---------------------------------------------

Verse: Keep on repeating this until he goes to the chorus
E|--------------------------------------------
B|--------------------------------------------
G|--------2---------------0---------0---------
D|-----2--------2-------2--------2----------2-
A|--0--------0-------3--------2----------2----
E|------------------------------------0-------

E|--------------------------------------------
B|-----------------------------8------8----12-
G|---------2----------------9-------9------9--
D|------2---------2-----10--------9--------9--
A|---0---------0------------------------------
E|--------------------------------------------

Outro: Repeat this part, which is the chorus, until the song ends
E|--------------------------------------------
B|---5--7--8--10-12-10--8--7--5---------------
G|--------------------------------------------
D|--------------------------------------------
A|--------------------------------------------
E|--------------------------------------------

E|----------------7------10--8--7--------------
B|---5--7--8--10-----10------------------------
G|---------------------------------------------
D|---------------------------------------------
A|---------------------------------------------
E|---------------------------------------------

E|--------------------------------------------
B|---5--7--8--10-12-10--8--7--5---------------
G|--------------------------------------------
D|--------------------------------------------
A|--------------------------------------------
E|--------------------------------------------

E|----------------7------10--8--7--------------
B|---5--7--8--10-----10------------------------
G|---------------------------------------------
D|---------------------------------------------
A|---------------------------------------------
E|---------------------------------------------

_________________________________________________________
Order:

Intro
Chorus
Verse
Chorus
Verse
Chorus
Verse
Chorus
Outro
Добавлено: 11.02.2014
Другие материалы по этой песне:

Страница создана 21.02.2012
http://primanota.ru/eminem/superman-chords.htm
Привет, Гость.
Предлагаем пройти революционный курс по гитаре.
Подарок от PrimaNota.Ru, забирай!