PrimaNota.ru - самый крупный в мире бесплатный архив песенных текстов, аккордов, табулатур и нот


Eminem - Psychopath Killer - бас-таба, видео

Регистрация Запомнить меня
Войти через:  Facebook Google Twitter Vk Yandex Mail.ru

Eminem - Psychopath Killer - бас-таба, видео

Печатать
Просмотров: 176
-------------------------------------------------------------------------------
        Psychopath Killer - Slaughterhouse ft. Eminem & Yelawolf 
-------------------------------------------------------------------------------
Tabbed by: Tyrex
E-mail: tywajo@gmail.com

Tuning: Standard

Intro part x2:
G|------------------------0----------------------------------------0------0--|
D|--1-------------------------------------------1----------------------------|
A|-------------3------------------------------------------3------------------|
E|---------------------------------------------------------------------------|

Main riff:

G|--------------------------0----------2--3--2--0---|
D|--1----------0-----------------------------------0|
A|---------------3----------------------------------|
E|--------------------------------------------------|
REPEAT FOR HOWEVER LONG

===============================================================================
Добавлено: 29.08.2015
Другие материалы по этой песне:
  • Аккорды и текст

Страница создана 29.08.2015
http://primanota.ru/eminem/psychopath-killer-chords.htm
Привет, Гость.
Предлагаем пройти революционный курс по гитаре.
Подарок от PrimaNota.Ru, забирай!