PrimaNota.ru - самый крупный в мире бесплатный архив песенных текстов, аккордов, табулатур и нот


Eminem - My Fault - аккорды и текст, бас-таба, видео

Регистрация Запомнить меня
Войти через:  Facebook Google Twitter Vk Yandex Mail.ru

Eminem - My Fault - аккорды и текст, бас-таба, видео

Печатать
Просмотров: 197
My Fault
Eminem
------------------------------------------------------------------------------
------------------------------------------------------------------------------
--------9-9-9-99--99--10--7--7---5--7-----12--10-9---9--9-9--9-10-9-7--7-7----
------------------------------------------------------------------------------
------7-7-7-7-77--77--8---5--5---3--5-----10--8--7---7--7-7--7-8--7-5--5-5----
-0----0-0-0-0-00--00-------------------0-----------0----0-0--0----------------


------------|-----------------------------------------------------------------
------------|-----------------------------------------------------------------
-10-9-10-9--|-----------------------------------------------------------------
------------|-----------------------------------------------------------------
-8--7-8--7--|-----7--7--7---7-8--5----5--3-5----10--8-7---7-7-7---7-8-7--5----
-----------0|--0----------0-----------------------------0-------0-------------
verse

---------------|--------------------------------------------------------------
---------------|--------------------------------------------------------------
---------------|--------------------------------------------------------------
---------------|--------------------------------------------------------------
-5--5---8-7-8-7|--------------------------------------------------------------
---------------|--------------------------------------------------------------
Добавлено: 05.02.2014
Другие материалы по этой песне:
  • Аккорды и текст

Страница создана 21.02.2012
http://primanota.ru/eminem/my-fault-chords.htm
Привет, Гость.
Предлагаем пройти революционный курс по гитаре.
Подарок от PrimaNota.Ru, забирай!