PrimaNota.ru - самый крупный в мире бесплатный архив песенных текстов, аккордов, табулатур и нот


Emilys Army - Lost At 17 - бас-таба, видео

Регистрация Запомнить меня
Войти через:  Facebook Google Twitter Vk Yandex Mail.ru

Emilys Army - Lost At 17 - бас-таба, видео

Печатать
Просмотров: 109
-------------------------------------------------------------------------------
                             LOST AT 17 - Emilys Army
-------------------------------------------------------------------------------
Tabbed by: toxicevil13
E-mail: toxicevil13@hotmail.com

Tuning: Standard (EADG)

Intro

G|--------M-------------------------------------------------------------------|
D|------U---S-----------------------------------------------------------------|
A|----R-----------------------------------------------------------------------|
E|--D-------------------------------------------------------------------------|

Verse

G|-----------------------------------------------------------------------------|
D|-----------------------------------------------------------------------------|
A|--4---4---6---6------4---4-4-4-----4---4---6---6------4---4-44444444---------|
E|----4---4---6---6--2---2-------4-6---4---4---6---6--2---2-----------4--------|

Pre-Chorus

G|---------------------------------------------------------------------------|----------------------------
D|--------------------------------------------------------------------X2-----|----------------------------
A|--6-6-6-6-6-6-6-6-----------------4-4-4-4-4-4-4-4--------------------------|--6-6-6-6-6-6-6-6-----------
E|------------------2-2-2-2-2-2-2-2-----------------4-4-4-4-4-4-4-4----------|------------------2-2-2-2-2-

Verse 2

G|------------------------------------------------------------------------------------------------|
D|------------------------------------------------------------------------------------------------|
A|-4---4---4---4-----3-4---4---6---6------4---4-4-4-----4---4---6---6------4---4-44444444---------|
E|---4---4---4---4-6-----4---4---6---6--2---2-------4-6---4---4---6---6--2---2-----------4--------|

Pre-Chorus

G|---------------------------------------------------------------------------|
D|-------------------------------------------------------------------X2------|
A|-6-6-6-6-6-6-6-6-----------------4-4-4-4-4-4-4-4---------------------------|
E|-----------------2-2-2-2-2-2-2-2-----------------4-4-4-4-4-4-4-4-----------|

Pre-Pre-Chorus

G|-------------------------------------------------------------------------------------------------|
D|-------------------------------------------------------------------------------------------------|
A|-6-6-6-6-6-6-6-6---------------------------------1-1-1-1-1-1-1-1---------------------------------|
E|-----------------2-2-2-2-2-2-2-2-1-1-1-1-1-1-1-1-----------------2-2-2-2-2-2-2-2-2-2-2-2-2-------|

Chorus

G|--------------------------------------|-----------------------------------------------------------|
D|----------------------------------X4--|-----------------------------------------------------------|
A|--4-4-4-4-4-4-4-4---------------------|-6-6-6-6-6-6-6-6-6-6-6-6-6-6-6-6---------------------------|
E|------------------2-2-2-2-2-2-2-2-----|---------------------------------2-2-2-2-2-2-2-2--4--4-4---|

Solo

G|------------------|----------------------------------------------------------------------|
D|------------------|---------------------------------------------------------------X2-----|
A|-4---4---4---4----|-6-6-6-6-6-6-6-6-----------------4-4-4-4-4-4-4-4----------------------|
E|---4---4---4---4--|---------------2-2-2-2-2-2-2-2-----------------4-4-4-4-4-4-4-4--------|

Pre-Pre-Chorus

G|-----------------------------------------------------------------------------------------------|
D|-----------------------------------------------------------------------------------------------|
A|-6-6-6-6-6-6-6-6---------------------------------1-1-1-1-1-1-1-1-------------------------------|
E|-----------------2-2-2-2-2-2-2-2-1-1-1-1-1-1-1-1-----------------2-2-2-2-2-2-2-2-2-2-2-2-2-----|

Chorus

G|----D----------------------|
D|---L-----------------------|
A|--O------------------------|
E|-H------2-2-2-2-2-2-2-2----|

Still The Chorus

G|---------------------------------------------------------------------------------------------------|
D|---------------------------------------------------------------------------------------------------|
A|-4-4-4-4-4-4-4-4-----------------4-4-4-4-4-4-4-4-----------------4-4-4-4-4-4-4-4-------------------|
E|-----------------2-2-2-2-2-2-2-2-----------------2-2-2-2-2-2-2-2-----------------2-2-2-2-2-2-2-2---|

Last Bit Of Chorus

G|---------------------------------------------------------------------|---------------------------------
D|---------------------------------------------------------------------|----------------------------X4---
A|--6-6-6-6-6-6-6-6-6-6-6-6-6-6-6-6-----------------4-4-4-4-4-4-4444---|-4-4-4-4-4-4-4-4-----------------
E|----------------------------------2-2-2-2-2-2-2-2--------------------|-----------------2-2-2-2-2-2-2-2-

Ending

G|------------------------------------------------------------------------------------------|
D|------------------------------------------------------------------------------------------|
A|-6-6-6-6-6-6-6-6-6-6-6-6-6-6-6-6--------------------------4---4---4---4---4\--------------|
E|---------------------------------2-2-2-2-2-2-2-2--4--4-4----4---4---4---4-----------------|

************************************

| /   slide up
| \   slide down
| h   hammer-on
| p   pull-off
| ~   vibrato
| +   harmonic
| x   Mute note
| b   Bend
| pb  Pre-bend
| br  Bend release
| pbr Pre-bend release
| brb Bend release bend

************************************
Добавлено: 27.06.2015
Другие материалы по этой песне:
  • Аккорды и текст

Страница создана 27.06.2015
http://primanota.ru/emilys-army/lost-at-17-chords.htm
Привет, Гость.
Предлагаем пройти революционный курс по гитаре.
Подарок от PrimaNota.Ru, забирай!