PrimaNota.ru - самый крупный в мире бесплатный архив песенных текстов, аккордов, табулатур и нот


Emily - Paraluman - таба, видео

Регистрация Запомнить меня
Войти через:  Facebook Google Twitter Vk Yandex Mail.ru

Emily - Paraluman - таба, видео

Печатать
Просмотров: 124
sana po mgustuhan nio
but i thinnk 95% po accurate to 
pakinggan nio nlng maigi para makuha niu perfect timing
ganito ko sya tugtugin :))

support OPM !!!
 



song: Emily
band: Paraluman
tabbed by: muzica
fb accnt.: muzica_1968@yahoo.com

legends:
~  =  let it ring
h  =  hammer on
p  =  pull off
/  =  slide


INTRO:

Guitar 1

e|---------10---------------------8-7-7-7h8-8----|
B|-7h8-8-8----8-8-7h8-8-8-7h8-8-8----------------|
G|-----------------------------------------------|
D|-----------------------------------------------|
A|-----------------------------------------------|
E|-----------------------------------------------|

e|---------10---------------------8-7-7-7h8------|
B|-7h8-8-8----8-8-7h8-8-8-7h8-8-8----------------|
G|-----------------------------------------------|
D|-----------------------------------------------|
A|-----------------------------------------------|
E|-----------------------------------------------|

sabay na po ung guitar 2 dito : G-Am-G-Bm G-Am-G-C ang chords


    G      Am     G            Bm  
e|---------10------------------8-7-7-7h8-8--|   
B|-7h8-8-8----8-8-7h8-8--7h8-8--------------|
G|------------------------------------------|
D|------------------------------------------|
A|------------------------------------------|
E|------------------------------------------|
   G       Am     G          C
e|---------10------------------8-----|
B|-7h8-8-8----8-8-7h8-8--7h8-8-------|
G|-----------------------------------|
D|-----------------------------------|
A|-----------------------------------|
E|-----------------------------------|

VERSE: 

Guitar 1                          Guitar 2 = strum po yan,

      G              C                  G                 C

e|----X-----|  e|----X-----|     e|----3-----|     e|----3-----|               
B|----X-----|  B|----X-----|     B|----3-----|     B|----3-----|               
G|----X-----|  G|----X-----|     G|----0-----|     G|----0-----|              
D|----5~----|  D|----10~---|     D|----0-----|     D|----2-----|                  
A|----5~----|  A|----10~---|     A|----2-----|     A|----3-----|
E|----3~----|  E|----8~----|     E|----3-----|     E|----X-----|   


guitar 1= bagsak bagsak lng     guitar 2= strum po ung chords

 G~                       C~               G~            C~
  The sun has set, And the grey sky fade in blue



guitar 1= lead                guitar 2= continue lang ung strum ng mga chords    

e|-7h8-7-10-7h8-7-10--10-10-10/8-8/7h8-7------------|
B|-----------------------------------------8h10-8---|
G|--------------------------------------------------|
D|--------------------------------------------------|
A|--------------------------------------------------|
E|--------------------------------------------------|

G~               C~                 G~              C~
 Been wanting to say goodbye But it leads me back to you


guitar 1= lead                guitar 2= G-Am-G-Bm G-Am-G-C                 
e|------------------10(x5)-----------------10(x5)---|
B|-7-7-7h8--8-8-8-8--------7-7-7h8-8-8-8/10---------|
G|--------------------------------------------------|
D|--------------------------------------------------|
A|--------------------------------------------------|
E|--------------------------------------------------|

e|------------------10(x5)---------10~--------------|
B|-7-7-7h8--8-8-8/12-------7-7-7-8------------------|
G|--------------------------------------------------|
D|--------------------------------------------------|
A|--------------------------------------------------|
E|--------------------------------------------------|

G~                        C~
  Then the rain starts to fall down
     G~                       C~        
As I watch the stars crash into the night
  G~                      C~
I wish I could turn, turn back the hands of time



guitar 1 =lead            guitar2 : G-Am-G-Bm G-Am-G-C

e|-7h8-8-10-7h8-8-10--10-10-10/8-8/7-7h8-7----------|
B|-----------------------------------------8h10-8---|
G|--------------------------------------------------|
D|--------------------------------------------------|
A|--------------------------------------------------|
E|--------------------------------------------------|

guitar 2: strum ung chords
     Em                          D
As I piked up all te pieces that you've left behind
   C                              D
My heart bleeds your smile and my soul starts to die
    
guitar 1
e|---------------------------------------------------------------------|
B|-8-8-8-8-8-8-10-10-10-10-10-10-8-8-8-8-8-10-10-10-10-10--------------|
G|---------------------------------------------------------------------|
D|---------------------------------------------------------------------|
A|---------------------------------------------------------------------|
E|---------------------------------------------------------------------|


CHORUS: G-Am-Bm-C

Guitar 1
e|---------10------------------10-------------|
B|-7h8-8-8----8-8--7h8-8-7h8-8----------------|
G|--------------------------------------------|
D|--------------------------------------------|  REPEAT 4X
A|--------------------------------------------|
E|--------------------------------------------|



guitar 2

e|------------------------------------------------|
B|------------------------------------------------|
G|------------------------------------------------|
D|---5-5-5-5--7-7-7-7--9-9-9-9--10-10-10-10-------|
A|---5-5-5-5--7-7-7-7--9-9-9-9--10-10-10-10-------|
E|---3-3-3-3--5-5-5-5--7-7-7-7--8--8--8--8--------|
        G        Am       Bm        C



        G             Am
Now I'm screaming and shouting
      Bm           C
And I can't hear a thing

  G              Am         Bm             C
My eyes burn and blister, I can't feel the pain
      G          Am    Bm-C
And I don't know why I'm here
G           Am    Bm-C
Don't know why I'm here 


ADLIB: guitar 1= lead        guitar 2= tuloy lng ang strum

e|-------10-------10--10-10-10-10--8-7-7h8p7-7--------------|
B|-7h8p7----7h8p7-----------------------------8-8-8h10-8----|
G|----------------------------------------------------------|
D|----------------------------------------------------------|
A|----------------------------------------------------------|
E|----------------------------------------------------------|

 ung guitar 2 sasabay sya sa tempo ng guitar 1 sa part na t0
 
guitar 1 =lead       guitar 2= tulad pa din sa chorus ung chords
e|--------------------------------------------------------------------|
B|-8-8-8-8-8-8-10-10-10-10-10-10-12-12-12-12-12-12-13-13-13-13-13-13--|
G|--------------------------------------------------------------------|
D|--------------------------------------------------------------------|
A|--------------------------------------------------------------------|
E|--------------------------------------------------------------------|

pag dating dito balik na sa dating tempo ung guitar 2
e|-------------15-15-17-17-15-15-------|
B|-15-15-17-17-------------------17-17-|
G|-------------------------------------| 3x
D|-------------------------------------|
A|-------------------------------------|
E|-------------------------------------|

e|-------15-17-17/18-|
B|-15-15-------------|
G|-------------------|
D|-------------------|
A|-------------------|
E|-------------------|


guitar 2 lang po sa part na to ..
      Em          D
But I simply can't
      C           D
No, I simply can't


guitar 1 and 2 sabay na,bagsak lng

      Em~         D~
No, I simply can't 
      Em~         D  
No, I simply can't 

e|----------------------------|
B|----------------------------|
G|-9~--7~--5~--777777-777777--|
D|-9~--7~--5~--777777-777777--|
A|-7~--5~--3~--555555-555555--|
E|----------------------------|
              [  put stop   ]

2nd CHORUS:

guitar 1 and guitar 2:
ganun pa din ung mga chords sa 1st chorus
gawin nyo lang ng dalawang beses ang chorus

 
 G             Am
Now I'm screaming and shouting
      Bm           C
And I can't hear a thing

  G              Am         Bm             C
My eyes burn and blister, I can't feel the pain
      G          Am    Bm-C
And I don't know why I'm here
G           Am    Bm-C
Don't know why I'm here 

 G             Am
Now I'm screaming and shouting
      Bm           C
And I can't hear a thing

  G              Am         Bm             C
My eyes burn and blister, I can't feel the pain
         G          Am    Bm-C
And I don't know why I'm here

G           Am    Bm-C
Don't know why I'm here 

guitar 1= lead on this part " and i dont know why im here .....

e|-------------15-15-17-17-15-15-------|
B|-15-15-17-17-------------------17-17-|
G|-------------------------------------| 3x
D|-------------------------------------|
A|-------------------------------------|
E|-------------------------------------|

e|-------15-15-17-17-15-15---------------------|
B|-15-15-------------------17-17-15-15(break)--|
G|---------------------------------------------|
D|---------------------------------------------|
A|---------------------------------------------|
E|---------------------------------------------|

Now I'm screaming and shouting

And I can't hear a thing

Dont know why I'm here.. 


paki rate na lng po first tab ko to 
t.y sa mg co2mment
Добавлено: 01.06.2012
Другие материалы по этой песне:
  • Аккорды и текст

Страница создана 01.06.2012
http://primanota.ru/emily/paraluman-chords.htm
Привет, Гость.
Предлагаем пройти революционный курс по гитаре.
Подарок от PrimaNota.Ru, забирай!