PrimaNota.ru - самый крупный в мире бесплатный архив песенных текстов, аккордов, табулатур и нот


Emily Kokal - Despite The Crossfire - таба, видео

Регистрация Запомнить меня
Войти через:  Facebook Google Twitter Vk Yandex Mail.ru

Emily Kokal - Despite The Crossfire - таба, видео

Печатать
Просмотров: 110
--------------------------------------------------------------------------
                   DESPITE THE CROSSFIRE - Emily Kokal
--------------------------------------------------------------------------Tabbed by: Sophie Ahmed
E-mail: sophie.ahmed01@gmail.com

INTRO

   F        C           Am
e|-1----------------------------------------------------------------|
B|-1--------1-----------1-------------------------------------------|
G|-2-0h2p0--0-----------2-------------------------------------------|
D|-3------0-2—0h2-0-----2-------------------------------------------|
A|----------3--------2----3-0---------------------------------------|
E|------------------3-3---------------------------------------------|

   F        C           Am
e|-1----------------------------------------------------------------|
B|-1--------1-----------1-------------------------------------------|
G|-2-0h2p0--0-----------2-------------------------------------------|
D|-3------0-2—0h2-0-----2-------------------------------------------|
A|----------3--------2----3-0---------------------------------------|
E|------------------3-3---------------------------------------------|

Then strum F, C and Am in the verses, and inbetween the 2 verses play this intro again!
Добавлено: 04.06.2013
Другие материалы по этой песне:
  • Аккорды и текст

Страница создана 04.06.2013
http://primanota.ru/emily-kokal/despite-the-crossfire-chords.htm
Привет, Гость.
Предлагаем пройти революционный курс по гитаре.
Подарок от PrimaNota.Ru, забирай!