PrimaNota.ru - самый крупный в мире бесплатный архив песенных текстов, аккордов, табулатур и нот


Emily Kokal - Dark Flowers - таба, видео

Регистрация Запомнить меня
Войти через:  Facebook Google Twitter Vk Yandex Mail.ru

Emily Kokal - Dark Flowers - таба, видео

Печатать
Просмотров: 202
Уроки эстрадного вокала в Санкт-Петербурге
-------------------------------------------------------------------------------
                             Dark Flowers - Emily Kokal
-------------------------------------------------------------------------------
http://www.warpaintwarpaint.com

Tuning: Standard

This is played throughout the whole song

e|-------------------------1-1--------1-1--------1-1-------1-1--------1-1---------|
B|---1-1--------1-1-------------3-3--------3-3--------1-1-------1-1--------3-3----|
G|--------2-2-------2-2-------2----------2----------2---------2----------2--------|
D|------2----------2-----0----------0----------3----------3---------0-------------|
A|--0---------0-------------------------------------------------------------------|
E|--------------------------------------------------------------------------------|

e|---1-1-------|
B|--------3-3--|
G|------2------|
D|-0-----------|
A|-------------|
E|-------------|


************************************
Добавлено: 16.06.2013
Другие материалы по этой песне:
  • Аккорды и текст

Страница создана 16.06.2013
http://primanota.ru/emily-kokal/dark-flowers-chords.htm
Привет, Гость.
Предлагаем пройти революционный курс по гитаре.
Подарок от PrimaNota.Ru, забирай!