PrimaNota.ru - самый крупный в мире бесплатный архив песенных текстов, аккордов, табулатур и нот


Emily King - Sides - аккорды и текст, видео

Регистрация Запомнить меня
Войти через:  Facebook Google Twitter Vk Yandex Mail.ru

Emily King - Sides - аккорды и текст, видео

Печатать
Просмотров: 165
Sides
Emily King
-------------------------------------------------------------------------------------------------
                            SIDES - Emily King
-------------------------------------------------------------------------------------------------

Tabbed by:ndermawan
E-mail:ndermawan@yahoo.com

Tuning: Standard

Reference: https://www.youtube.com/watch?v=QtIMp0lnXyg

Didn't really like this song at first but it has grown on me!
That bridge just gives me goosebumps (the good kind!)

To be honest this song sounds very unconventional and unique,
and I think it is better if only POWER CHORDS are played when you play alone.
To my ear, when the whole chord is played it doesn't sound 100% right

Then again maybe I'm just a noob and can't figure it out,
There is the thumping bass and many backing layers and tracks of Emily's voice
to fill out the song, which I can't really note down in chords.
Either way, this is how I play it. 

=================================================================================================

Chords Used:
------------
C Bb Dm G#m  F Am


Lead Riff: Timing is a bit hard so practice lots!
--------------------------------------------------
e|-----------------------------------------------------|
B|-----------------------------------------------------|
G|-----------------------------------------------------|
D|-----------------------------0-0-0-0--0--0-0-0-------|
A|-3-3-3-3--3--3-1-1-1-1--1--0-------------------------|
E|-----------------------------------------------5-4-4-|

e|----------------------------------------------------------|----------------|
B|----------------------------------------------------------|----------------|
G|----------------------------------------------------------|----------------|
D|----------------------------------------------------------|----------------|
A|---------------------------------------------2-2--2-2-2--2|3---------------|
E|-4-1-1-1-1--1--1-4-4-4-4--4--4-5-5-5-5--5--5--------------|---back to start|

=================================================================================================


Intro: Riff X1
-----

Verse: Riff X2
------
After the light has gone away 
And the monsters start to creep 

I'll never fear the closet door 
As long as you are there with me 
Oh because 


Chorus: X2
-------
C Bb Dm
There's a side of me 

F G# Am
That needs to be afraid 

C Bb Dm
There's a side of you 

F G# Am
That makes it all OK 



Verse 2: Riff X2
--------
If you get lost in the woods one day 
On the cusp of a setting sun 

Just call my name I'll get there right away yea
With my silver bullet guu-uu-uun 

because



Chorus: Riff X2
-------
C Bb Dm
There's a side of you 

F G# Am
That needs to be afraid 

C Bb Dm
There's a side of me 

F G# Am
That makes it all OK 


Bridge: Play the lead riff all thru Bridge                      2:00 - 3:20
------------------------------------------
e|---------------------------------------------------------------------------|
B|--12b13---------10---------------------------------------------------------|
G|--------14-9-12----9-------------------------------------------------------|
D|---------------------------------------------------------------------------|
A|---------------------------------------------------------------------------|
E|----------------------X12--------------------------------------------------|


ohhh...sometimes this'll be the darkest of your days

You never have to worry cause I

ooooooh   yeah yeah yeah yeah

After the rain has taken everything

and the darkness starts to fa-aall

oh no no no no no no no ohh


Outro:                                                          3:21 - 3:30
------
e|-----------------------------------------------------|
B|-----------------------------------------------------|
G|-----------------------------------------------------|
D|-----------------------------0-0-0-0--0--0-0-0-------|
A|-3-3-3-3--3--3-1-1-1-1--1--0-------------------------|
E|-----------------------------------------------5-4-4-|

e|---------------------------------|
B|---------------------------------|
G|---------------------------------|
D|---------------------------------|
A|-------------------------------3-|
E|-4-1-1-1-1--1--1-4-4-4-4--4--0---|


Apologies if it's not as clear as some of my previous tabs!


************************************
Добавлено: 17.10.2015
Вам также может быть интересно:
Другие материалы по этой песне:
  • Аккорды и текст

Страница создана 17.10.2015
http://primanota.ru/emily-king/sides-chords.htm
Привет, Гость.
Предлагаем пройти революционный курс по гитаре.
Подарок от PrimaNota.Ru, забирай!