PrimaNota.ru - самый крупный в мире бесплатный архив песенных текстов, аккордов, табулатур и нот


Emily King - Every Part - таба, видео

Регистрация Запомнить меня
Войти через:  Facebook Google Twitter Vk Yandex Mail.ru

Emily King - Every Part - таба, видео

Печатать
Просмотров: 105
-------------------------------------------------------------------------------
                             EVERY PART - Emily King
-------------------------------------------------------------------------------
Tabbed by:ndermawan
E-mail:ndermawan@yahoo.com


Tuning: Standard


Lovely simple song. So glad I finally discovered Emily King's music!
The picking notes follow the melody, which puts me off and makes it harder
to play, for some reason. For me at least.


Chords used: You can strum these out if you're feeling too lazy to fingerpick
------------

    D      Bbmaj/E     Bm7

        D5/E     Bb5/E       A
e|--5-------------------7----5-----------------------------------|
B|--7----7----6----5----7----5-----------------------------------|
G|--7----7----7----7----7----6-----------------------------------|
D|--7----6----8----8----7----7-----------------------------------|
A|--0----7----7----7----9----7-----------------------------------|
E|----------------------7----5-----------------------------------|




Lead Riff:  Repeats throughout song
------------------------------------

e|----------5-------------7--------------------------------------|
B|----------------------------7-----------7-------------7p5------|
G|------7-------7-----7---------------7-------7-----7-------7----|
D|----7---7---7-----7---7---7---7---7---7---7-----7---7-------7--|
A|--0-------------0---------------0-------------0----------------|
E|---------------------------------------------------------------|

e|---------------------------------------------------------------|
B|----------7-------------6---5----------------------------------|
G|------7-------7-----7---7---7-----------7-------------6--------|
D|----6---6---6-----8---8---8---8-----7-------7-----7-------7----|
A|--7-------------7-----------------9---9---9-----7---7---7------|
E|--------------------------------7-------------5----------------|





Intro: Lead Riff X2  - ooh vocals on the 2nd time through
-------------------


Verse: Riff X2
--------------

  All you ever do       Make  me        smile           All of the 
e|----------5-------------7--------------------------------------|
B|----------------------------7-----------7-------------7p5------|
G|------7-------7-----7---------------7-------7-----7-------7----|
D|----7---7---7-----7---7---7---7---7---7---7-----7---7-------7--|
A|--0-------------0---------------0-------------0----------------|
E|---------------------------------------------------------------|

           time         All the         ti     -ime
e|---------------------------------------------------------------|
B|----------7-------------6---5----------------------------------|
G|------7-------7-----7---7---7-----------7-------------6--------|
D|----6---6---6-----8---8---8---8-----7-------7-----7-------7----|
A|--7-------------7-----------------9---9---9-----7---7---7------|
E|--------------------------------7-------------5----------------|


All you ever do        Change my         life          Every 
e|----------5-------------7--------------------------------------|
B|----------------------------7-----------7-------------7p5------|
G|------7-------7-----7---------------7-------7-----7-------7----|
D|----7---7---7-----7---7---7---7---7---7---7-----7---7-------7--|
A|--0-------------0---------------0-------------0----------------|
E|---------------------------------------------------------------|
          time,           Every          ti     -ime
e|---------------------------------------------------------------|
B|----------7-------------6---5----------------------------------|
G|------7-------7-----7---7---7-----------7-------------6--------|
D|----6---6---6-----8---8---8---8-----7-------7-----7-------7----|
A|--7-------------7-----------------9---9---9-----7---7---7------|
E|--------------------------------7-------------5----------------|



Instrumental: Riff X2
---------------------


Bridge:
-------
And all I ever wanted  Was something 
e|---------------------------------------------------------------|
B|----------5-----------7-----------0-------------0--------------|
G|------7-----7-----7-----7-----1-------1-----1-------1----------|
D|----7---7-------7---7-------2---2---2-----2---2---2------------|
A|--0-----------5------------------------------------------------|
E|--------------------------0-------------0----------------------|

And all I ever needed  Was nothing        ooooo
e|---------------------------------------------------------------|
B|----------5-----------7-----------0----------------------------|
G|------7-----7-----7-----7-----1-------1-----7-------6----------|
D|----7---7-------7---7-------2---2---2-----9---9---7---7--------|
A|--0-----------5------------------------------------------------|
E|--------------------------0-------------7-------5--------------|


Verse 2:
--------

You will always be       In  my         heart           Every 
e|----------5-------------7--------------------------------------|
B|----------------------------7-----------7-------------7p5------|
G|------7-------7-----7---------------7-------7-----7-------7----|
D|----7---7---7-----7---7---7---7---7---7---7-----7---7-------7--|
A|--0-------------0---------------0-------------0----------------|
E|---------------------------------------------------------------|
           part           Every         pa- -art
e|---------------------------------------------------------------|
B|----------7-------------6---5----------------------------------|
G|------7-------7-----7---7---7-----------7-------------6--------|
D|----6---6---6-----8---8---8---8-----7-------7-----7-------7----|
A|--7-------------7-----------------9---9---9-----7---7---7------|
E|--------------------------------7-------------5----------------|


    and   ooooh                          wooo          ooah 
e|----------5-------------7--------------------------------------|
B|----------------------------7-----------7-------------7p5------|
G|------7-------7-----7---------------7-------7-----7-------7----|
D|----7---7---7-----7---7---7---7---7---7---7-----7---7-------7--|
A|--0-------------0---------------0-------------0----------------|
E|---------------------------------------------------------------|
            oo            oo 
e|---------------------------------------------------------------|
B|----------7-------------6---5----------------------------------|
G|------7-------7-----7---7---7-----------7-------------6--------|
D|----6---6---6-----8---8---8---8-----7-------7-----7-------7----|
A|--7-------------7-----------------9---9---9-----7---7---7------|
E|--------------------------------7-------------5----------------|


Outro: Riff X2/Fade out
-----------------------


Hope it is easy enough to understand!


Basic lyrics:
-------------
All you ever do;
Make me smile
All of the time
All the ti-ime

All you ever do;
Change my life
Every time,
Every ti-ime

And all I ever wanted 
Was something 
And all I ever needed 
Was nothing 

You will always be 
In my heart 
Every part 
Every part

************************************

| /   slide up
| \   slide down
| h   hammer-on
| p   pull-off
| ~   vibrato
| +   harmonic
| x   Mute note
| b   Bend
| pb  Pre-bend
| br  Bend release
| pbr Pre-bend release
| brb Bend release bend

************************************
Добавлено: 17.10.2015
Другие материалы по этой песне:
  • Аккорды и текст

Страница создана 17.10.2015
http://primanota.ru/emily-king/every-part-chords.htm
Привет, Гость.
Предлагаем пройти революционный курс по гитаре.
Подарок от PrimaNota.Ru, забирай!